Oops, an error
Loading. Please wait.

Envidia Tab

74 views 1 this week
no commentswrite comment
1 2 3 4 5
3 more votes to show rating
add to favorites
launch autoscroll
font size
0
reset
how to read this tab
guitar tuner
Autoscroll
slow
fast
+/-
esc
set tempo
stop
Help us to improve Ultimate-Guitar.com Take our survey!
×
~CORRECCION DE MI OTRO TAB. FAVOR DE REEMPLAZARLO CON ESTA VERSION
Y DE BORRAR ESTE MENSAJE.¡¡GRACIAS!!

100% Correcta...

*Intro:

1. ----------------------15-12-14-15-14-12----|
2. -------12-15-13-12-13-------------------15-|
3. ----12-------------------------------------|
4. -12----------------------------------------|
5. -------------------------------------------|
6. -------------------------------------------|

1. ----------------------15-12-14-15-17-15-|
2. -------12-15-13-12-13-------------------|
3. ----12----------------------------------|
4. -12-------------------------------------|
5. ----------------------------------------|
6. ----------------------------------------|

*Verso:

 G                      C      D
Siempre pensé que la envidia
1. -------------------------0-----|
2. -----------------------1---1-3-|
3. -------------------------------|
4. -------------------------------|
5. -------------------------------|
6. -------------------------------|
                      G
era un sentimiento errado
1. -----------------------------------|
2. -----------------------------------|
3. -------------------4h5-4-2---2-4-0-|
4. ---------------------------5-------|
5. -----------------------------------|
6. -----------------------------------|
                  C    D                         G
y de repente mi vida, ay, de envidia se me ha llenado.
1. ---------------------------------------------7--8--8--8/10--8-5-5/7-|
2. ---------------------------------------------8-10-10-10/12-10-7-7/8-|
3. --------------------------------------------------------------------|
4. -----------------2-2/4----------------------------------------------|
5. --------------------------------------------------------------------|
6. --------------------------------------------------------------------|

G                      C     D
Le tengo envidia a la noche,
1. ----------------------------|
2. ----------------------------|
3. ----------------------------|
4. ------------------------2/4-|
5. ----------------------------|
6. ----------------------------|
                    G
noche que vela tu sueño
1. -----------------------7-8-10-7h8-7-7-|
2. ---------------------8----------------|
3. -------------------7------------------|
4. --------------------------------------|
5. --------------------------------------|
6. --------------------------------------|
                       C       D                      G
le tengo envidia y quisiera ser de la noche y de ti dueño.
1. -----------------8------------------------------------7--8-7--8-7-|
2. ----------------------------7h8-7---------------------8-10-8-10-8-|
3. ---------------9------------7---7---------------------------------|
4. ------------------------------------------------------------------|
5. ------------------------------------------------------------------|
6. ------------------------------------------------------------------|

G                        C    D
Le tengo envidia a la lluvia
1. --------------------------8-------------|
2. ----------------------------------7/8-7-|
3. ------------------------9-------9-------|
4. -----------------------------10---------|
5. ----------------------------------------|
6. ----------------------------------------|
                      G
que te acaricia y te moja
1. -----------------------------------------|
2. ------------------------------7-8-8/10-8-|
3. --------------------------7-9------------|
4. ---------------------9-10----------------|
5. -----------------------------------------|
6. -----------------------------------------|
                       C       D                    G
yo tengo envidia del viento que te besa si se le antoja.
1. ----------------------8----------------------------10-7h8-7----7---|
2. ---------------------------7-8-8/10-------------------------10---8-|
3. --------------------9------7-9-9/11--------------------------------|
4. -------------------------------------------------------------------|
5. -------------------------------------------------------------------|
6. -------------------------------------------------------------------|

*Interlude:

1. ----------------------15-12-14-15-14-12----|
2. -------12-15-13-12-13-------------------15-|
3. ----12-------------------------------------|
4. -12----------------------------------------|
5. -------------------------------------------|
6. -------------------------------------------|

1. ----------------------15-12-14-15-17-15-|-------------------7-8-8/10-|
2. -------12-15-13-12-13-------------------|------------7-8-10----------|
3. ----12----------------------------------|----7-9-7-9-----------------|
4. -12-------------------------------------|-10-------------------------|
5. ----------------------------------------|----------------------------|
6. ----------------------------------------|----------------------------|


  G                     C     D
Siempre pensé que la envidia
1. ------------------------8-------------|
2. -------------------------------8-8/10-|
3. ----------------------9------9-9-9/11-|
4. ----------------------------10--------|
5. --------------------------------------|
6. --------------------------------------|
                      G
era un sentimiento insano
1. --------------------7h8-7-------7-----|
2. --------------------------10-10---7-8-|
3. --------------------------------------|
4. --------------------------------------|
5. --------------------------------------|
6. --------------------------------------|
                    C       D                    G
y de repente la envidia y yo no nos soltamos la mano.
1. -------------------8---------------------------7--8-7--8-5-5-5/7-|
2. ----------------------------8-7----------------8-10-8-10-7-7-7/8-|
3. ----------------/9--------9-9-7----------------------------------|
4. -------------------------10--------------------------------------|
5. -----------------------------------------------------------------|
6. -----------------------------------------------------------------|

G                      C      D
Le tengo envidia al silencio
1. -------------------------3-2-|
2. -----------------------1-----|
3. -----------------------------|
4. -----------------------------|
5. -----------------------------|
6. -----------------------------|
                     G
cuando te quedas callada
1. -------------------7--8--8--8/10-|
2. -------------------8-10-10-10/12-|
3. ---------------------------------|
4. ---------------------------------|
5. ---------------------------------|
6. ---------------------------------|
                         C      D                 G
le tengo envidia pues quiero ser de ti feliz carcajada.
1. -------------8-----------------------------------10-10--8-5-5-5/7-|
2. -------------------------------------------------12-12-10-7-7-7/8-|
3. -----------9------------------------------------------------------|
4. ------------------------------------------------------------------|
5. ------------------------------------------------------------------|
6. ------------------------------------------------------------------|

G                      C     D
Le tengo envidia a la noche,
1. -----------------------------|
2. -----------------------------|
3. -----------------------------|
4. -------------------------2/4-|
5. -----------------------------|
6. -----*-----------------------|
                   G
a la lluvia y al viento,
1. -------------------------------7-8-10-|
2. ------------------------7-8-10--------|
3. --------------------7-9---------------|
4. --------------------------------------|
5. --------------------------------------|
6. --------------------------------------|
                          C             D
y al fin de cuentas hoy comprendí la envidia,
1. -------------7----8----------------------10-|
2. ------------8-------------------------------|
3. ----------------9---------------------11----|
4. --------------------------------------------|
5. --------------------------------------------|
6. --------------------------------------------|
                   G
ay que bello sentimiento,
1. ---------------------------------------|
2. ---------------------------------7-7/8-|
3. -------------------------------7-------|
4. ---------------------------9-9---------|
5. ---------------------10-10-------------|
6. ---------------------------------------|
                        C             D
al fin de cuentas hoy comprendí la envidia
1. -----------------------------------------------10---8-|
2. -----------------------------------3/7-3/7------------|
3. --------------------------------------------11----9---|
4. ------------------------------------------------------|
5. ------------------------------------------------------|
6. ------------------------------------------------------|
                  G
es un bello sentimiento.

1. -7-10-8-7----7-10-8--10-8-7----------------------------------|
2. ----------10----------------10-8-7--7h8-7--------------------|
3. ------------------------------------------9-7-7-7h9-7--------|
4. ------------------------------------------------------9h10-9-|
5. -------------------------------------------------------------|
6. -------------------------------------------------------------|
Suggest correction
Give kudos to tab author, rate the tab!
1 2 3 4 5
comments
print report bad tab
guest
You may want to rate the tab now too:
select rating
Wanna post a correction for this tab? Suggest correction