Oops, an error
Loading. Please wait.

Eso Y Mas Tab

version 1
version 1

Interactive

78,385 views 81 this week
4 commentsread comments
1 2 3 4 5
x 14
add to favorites
launch autoscroll
font size
0
reset
how to read this tab
guitar tuner
Autoscroll
slow
fast
+/-
esc
set tempo
stop
Help us to improve Ultimate-Guitar.com Take our survey!
×
Author
[Intro]

e|------0-----0------2---------------2---0-------------------|
B|------0/2---0------3------------3---------2----0------2----|
G|-------------------2--------2-2-------------------2---2----|
D|------------------------------------------------------2----|
A|-----------------------------------------------------------|
E|-----------------------------------------------------------|


e|------0-----0------2----------------------------|
B|------0/2---0------3------------7--------2------|
G|-------------------2------------7---6----2------|
D|---------------------------7-7-----------2------|
A|------------------------------------------------|
E|------------------------------------------------|
  
      A
Me contaron de Romeo y Julieta y pense

que hermoso cuento
                             D
y ahora resulta que es mas grande mas bello esto
                      A
esto que por ti yo siento.

             D
Cruzaré los montes, los ríos, los valles,
              A
por irte a encontrar

              (Bajo) 
e|-----------------------------------------------|
B|-----------------------------------------------|
G|-----------------------------------------------|
D|-----------------------------------------------|
A|-----2----h4--------2---0------------2---0-----|
E|-----------------------------------------------|

             D
salvaría tormentas, ciclones, dragones
        A
sin exagerar.

              (Bajo)
e|-----------------------------------------------|
B|-----------------------------------------------|
G|-----------------------------------------------|
D|-----------------------------------------------|
A|---4--2--0-----0-------------------------------|
E|-----------------------------------------------|


             D                   E
Por poder mirarme en tus ojos bonitos
             F#m
y vivir la gloria de estar a tu lado
                  E
porque en mí ya siento que te necesito
                D  A
que me he enamorado.

             D                   E
Por poder mirarme en tus ojos bonitos
             F#m
y vivir la gloria de estar a tu lado
                  E
porque en mí ya siento que te necesito
           D  A
eso y más haré.

e|------0-----0------2---------------2---0-------------------|
B|------0/2---0------3------------3---------2----0------2----|
G|-------------------2--------2-2-------------------2---2----|
D|------------------------------------------------------2----|
A|-----------------------------------------------------------|
E|-----------------------------------------------------------|
 
e|------0-----0------2----------------------------|
B|------0/2---0------3------------7--------2------|
G|-------------------2------------7---6----2------|
D|---------------------------7-7-----------2------|
A|------------------------------------------------|
E|------------------------------------------------|


          D
Por asegurar la sonrisa de tu alma
              A
buscando equidad,
               D
yo podría empeñar lo más caro que tengo
                A
que es mi libertad.
              D                     E
y sería un honor ay amor ser tu esclavo
             F#m
sería tu juguete por mi voluntad
               E
y si un día glorioso en tus brazos acabo
          D A
Qué felicidad.
               D                     E
Si sería un honor ay amor ser tu esclavo
             F#m
sería tu juguete por mi voluntad
                                     E
y si un día glorioso en tus brazos acabo
          D A
qué felicidad.


e|------0-----0------2---------------2---0-------------------|
B|------0/2---0------3------------3---------2----0------2----|
G|-------------------2--------2-2-------------------2---2----|
D|------------------------------------------------------2----|
A|-----------------------------------------------------------|
E|-----------------------------------------------------------|
 

e|------0-----0------2----------------------------|
B|------0/2---0------3------------7--------2------|
G|-------------------2------------7---6----2------|
D|---------------------------7-7-----------2------|
A|------------------------------------------------|
E|------------------------------------------------|

 
************************************

| h  Hammer-on
| /  Slide up

************************************
Suggest correction
comments
print report bad tab
4 comments total. Showing first comments.
0 reply
dope_game 10 May 26, 2009 01:13 AM

yo where the part where u can see the chords?! wtf

0 reply
MeliManiac 10 Sep 28, 2009 07:39 PM

linda cancion :]

0 reply
mickeymlm 10 Jun 16, 2010 05:50 PM

hey
its nice, but you need to displaythe ****ing chords
=/

guest
You may want to rate the tab now too:
select rating
Wanna post a correction for this tab? Suggest correction