Oops, an error
Loading. Please wait.

Eso Y Mas Tab

version 2
version 2

Interactive

376 views 3 this week
no commentswrite comment
1 2 3 4 5
1 last vote to show rating
add to favorites
launch autoscroll
font size
0
reset
how to read this tab
guitar tuner
Autoscroll
slow
fast
+/-
esc
set tempo
stop
Help us to improve Ultimate-Guitar.com Take our survey!
×
INTRO

|------0-----0------2-------------------5---5-----------0----|
|------0/2---0------3------------3------5-7-5----5--4-2-2----|
|-------------------2----------2-----------------6--5-2-2----|
|----------------------------4--------------------------2----|
|-------------------------------------------------------0----|
|------------------------------------------------------------|


|------0-----0------2------------0--------0------|
|------0/2---0------3------------3---2----2------|
|-------------------2----------2----------2------|
|----------------------------4------------2------|
|-----------------------------------------0------|
|------------------------------------------------|


Arpegio

A
Me contaron de Romeo y Julieta y pensé
F#m
que hermoso cuento
        D
y ahora resulta que es mas grande que mas bello esto
 E
esto  que por ti yo siento

       D
Cruzaré los montes, los ríos, los valles,
                 A
por irte a encontrar                bajo #1
                      g|-----------------------------------------------|
                      a|-----2----h4--------2---0------------2---0-----|
                      e|-----------------------------------------------|
     D
salvaría tormentas, ciclones, dragones
          A
                        bajo #2
sin exagerar.   g|-------------------------|
                a|---4--2--0-----0---------|
                e|-------------------------|

            D                  E
Por poder mirarme en tus ojos bonitos
            A                   F#m
y vivir la gloria de estar a tu lado
                 Bm             E
porque en mí ya siento que te necesito
             D   A
que me he enamorado.

             D                  E
Por poder mirarme en tus ojos bonitos
            A                   F#m
y vivir la gloria de estar a tu lado
                  Bm             E
porque en mí ya siento que te necesito
             D
eso y más haré.

|------0-----0------2-------------------5---5-----------0----|
|------0/2---0------3------------3------5-7-5----5--4-2-2----|
|-------------------2----------2-----------------6--5-2-2----|
|----------------------------4--------------------------2----|
|-------------------------------------------------------0----|
|------------------------------------------------------------|


|------0-----0------2------------0--------0------|
|------0/2---0------3------------3---2----2------|
|-------------------2----------2----------2------|
|----------------------------4------------2------|
|-----------------------------------------0------|
|------------------------------------------------|

          D
Por asegurar la sonrisa de tu alma
             A
buscando equidad,
              D
yo podría empeñar lo más caro que tengo
                A
que es mi libertad
             D                   E
y sería un honor ay amor ser tu esclavo
            A                F#m
sería tu juguete por mi voluntad
                Bm                   E
y si un día glorioso en tus brazos acabo
           D
Qué felicidad

              D                   E
Si sería un honor ay amor ser tu esclavo
            A               F#m
sería tu juguete por mi voluntad
                Bm                  E
y si un día glorioso en tus brazos acabo
           D
qué felicidad

|------0-----0------2-------------------5---5-----------0----|
|------0/2---0------3------------3------5-7-5----5--4-2-2----|
|-------------------2----------2-----------------6--5-2-2----|
|----------------------------4--------------------------2----|
|-------------------------------------------------------0----|
|------------------------------------------------------------|


|------0-----0------2------------0--------0------|
|------0/2---0------3------------3---2----2------|
|-------------------2----------2----------2------|
|----------------------------4------------2------|
|-----------------------------------------0------|
|------------------------------------------------|
Suggest correction
Give kudos to tab author, rate the tab!
1 2 3 4 5
comments
print report bad tab
guest
You may want to rate the tab now too:
select rating
Wanna post a correction for this tab? Suggest correction