Oops, an error
Loading. Please wait.

Eso Y Mas Tab

version 3
version 3

Interactive

113 views 3 this week
no commentswrite comment
1 2 3 4 5
2 more votes to show rating
add to favorites
launch autoscroll
font size
0
reset
how to read this tab
guitar tuner
Autoscroll
slow
fast
+/-
esc
set tempo
stop
Help us to improve Ultimate-Guitar.com Take our survey!
×
Hola es la primera cancion ke subo espero les sirvaa!!

Eso y mas - Joan Sebastián
Intro:
                     D                          A
e|-0---0---2-----------0h1p0----------0---0---0---2--|
B|-0h2-0---3--------3--------0h2--0---2---0h2-0---3--|
G|---------2------2-------------------2-----------2--|
D|---------0----4---------------------2-----------0--|
A|---------------------------------------------------|
E|---------------------------------------------------|

e|-------------0------------------|
B|------3--2---2------------------|
G|----2--------2------------------|
D|--4----------2------------------|
A|------------------4-2-0---0-2-0-|
E|------------------------2-------|

             D
Cruzaré los montes, los ríos, los valles,
              A
por irte a encontrar         D|------------------------|
                             A|--2/42--0--2--0---------|
                             E|------------------------|
             D
salvaría tormentas, ciclones, dragones
        A
sin exagerar.                D|----------------------|
                             A|--4--2--0--2-0--------|
                             E|----------2-----------|

             D                   E
Por poder mirarme en tus ojos bonitos
         A                   F#m
y vivir la gloria de estar a tu lado
                  Bm               E
porque en mí ya siento que te necesito
                D  A
que me he enamorado.

             D                   E
Por poder mirarme en tus ojos bonitos
         A                    F#m
y vivir la gloria de estar a tu lado
                  Bm               E
porque en mí ya siento que te necesito
           A
eso y más haré.

..::: Entra el intro:::..

          D
Por asegurar la sonrisa de tu alma
              A
buscando equidad,            D|------------------------|
                             A|--2/42--0--2--0---------|
                             E|------------------------|


               D
yo podría empeñar lo más caro que tengo
                A
que es mi libertad.          D|----------------------|
                             A|--4--2--0--2-0--------|
                             E|----------2-----------|


              D                     E
y sería un honor ay amor ser tu esclavo
          A                F#m
sería tu juguete por mi voluntad

                  Bm                  E
y si un día glorioso en tus brazos acabo
           A
Qué felicidad.

               D                     E
Si sería un honor ay amor ser tu esclavo
          A                 F#m
sería tu juguete por mi voluntad
                  Bm                  E
y si un día glorioso en tus brazos acabo
           A
qué felicidad.

Final
e|-0---0---2-----------0h1p0----------0---0---0---2--|
B|-0h2-0---3--------3--------0h2--0---2---0h2-0---3--|
G|---------2------2-------------------2-----------2--|
D|---------0----4---------------------2-----------0--|
A|---------------------------------------------------|
E|---------------------------------------------------|

e|----------------0--0--------------|
B|------3--2-----2---2--------------|
G|----2---------2----2--------------|
D|--4----------2-----2--------------|
A|------------0---------------------|
E|----------------------------------|
Suggest correction
Give kudos to tab author, rate the tab!
1 2 3 4 5
comments
print report bad tab
guest
You may want to rate the tab now too:
select rating
Wanna post a correction for this tab? Suggest correction