Oops, an error
Loading. Please wait.

Eso Y Mas Tab

version 5
version 5

Interactive

112 views 1 this week
no commentswrite comment
1 2 3 4 5
3 more votes to show rating
add to favorites
launch autoscroll
font size
0
reset
how to read this tab
guitar tuner
Autoscroll
slow
fast
+/-
esc
set tempo
stop
Help us to improve Ultimate-Guitar.com Take our survey!
×
Bueno pues eh visto todas las versiones aqui y ninguna tiene bien el intro
y encontre un tutorial y me parecio muy bueno asi que decidi
tomar el tiempo para transcribirla espero les ayude! los acordes
ya estaban aqui y fueron subidos por Gabriel Alejandro Aguillon Murillo
(gaam2705@

Intro:

e|---0-----0------2-------------5----5----------------------|
B|---0/2---0------3--------3----5/7--5---5--3--2--0/2-------|
G|----------------2------2---------------6--4--2--2---------|
D|---------------------4--------------------------2---------|
A|----------------------------------------------------------|
E|----------------------------------------------------------|

e|---0-----0------2--------2-0---0-----|
B|---0/2---0------3--------3-----2-----|
G|----------------2------2-------2-----|
D|---------------------4---------2-----|
A|-------------------------------0-----|
E|-------------------------------------|


       A
Me contaron de Romeo y Julieta y pense

que hermoso cuento
                             D
y ahora resulta que es mas grande mas bello esto
                      A
esto que por ti yo siento.

             D
Cruzaré los montes, los ríos, los valles,
              A
por irte a encontrar         D|---------------------------------------|
                             A|--2/4---2--0--2--4-----2-0-------------|
                             E|---------------------------------------|
             D
salvaría tormentas, ciclones, dragones
        A
sin exagerar.                D|----------------------|
                             A|--2/4--2--0--2p0------|
                             E|----------------------|


             D                   E
Por poder mirarme en tus ojos bonitos
             F#m
y vivir la gloria de estar a tu lado
                  E
porque en mí ya siento que te necesito
                D  A
que me he enamorado.

             D                   E
Por poder mirarme en tus ojos bonitos
             F#m
y vivir la gloria de estar a tu lado
                  E
porque en mí ya siento que te necesito
           D  A
eso y más haré.

...Se toca el intro igual que al principio....

          D
Por asegurar la sonrisa de tu alma
              A
buscando equidad,
               D
yo podría empeñar lo más caro que tengo
                A
que es mi libertad.
              D                     E
y sería un honor ay amor ser tu esclavo
             F#m
sería tu juguete por mi voluntad
               E
y si un día glorioso en tus brazos acabo
           D A
Qué felicidad.

               D                     E
Si sería un honor ay amor ser tu esclavo
             F#m
sería tu juguete por mi voluntad
                                     E
y si un día glorioso en tus brazos acabo
           D  A
qué felicidad.
Suggest correction
Give kudos to tab author, rate the tab!
1 2 3 4 5
comments
print report bad tab
guest
You may want to rate the tab now too:
select rating
Wanna post a correction for this tab? Suggest correction