Oops, an error
Loading. Please wait.

Eso Y Mas Tab

version 6
version 6

Interactive

129 views 1 this week
no commentswrite comment
1 2 3 4 5
3 more votes to show rating
add to favorites
launch autoscroll
font size
0
reset
how to read this tab
guitar tuner
Autoscroll
slow
fast
+/-
esc
set tempo
stop
Help us to improve Ultimate-Guitar.com Take our survey!
×
ANTES QUE NADA LES VOY A EXPLICAR QUE SIGNIFICA LOS SIGNOS...

*La (h)significa un deslizamiento al aire
empezando del origen al numero de traste que marca ahi.
*La (s)significa un deslizamiento al aire
empezando del numero de traste que menciona antes de la letra,
llegando a rematarse con el numero de traste que
esta () el cual estas no se totan simplemente se
llegan a remartar ahi y regresando al punto de origen.
Intro:

e|---0-----0----0h2----------------2--5------0-----------------|
B|---0h2---0----------3---------3--3--5s(7)--2---0s2--0--0h2---|
G|---------------------2------2------------------2-------------|
D|--------------0-------0---4----------------------------------|
A|---0---------------------------------------------------0-----|
E|-------------------------------------------------------------|

e|---0-----0----0h2------------2-0---------|
B|---0h2---0----------3--------3-2---2-----|
G|---------------------2-----2-------2-----|
D|--------------0-------0--4---------------|
A|---0-------------------------------0-----|
E|-----------------------------------------|


       A
Me contaron de Romeo y Julieta y pense

que hermoso cuento
           D
y ahora resulta que es mas grande mas bello esto
                    A
esto que por ti yo siento.

             D
Cruzaré los montes, los ríos, los valles,
              A
por irte a encontrar         D|------------------------------|
                             A|--2/4---2--0-----0h2-0--------|
                             E|------------------------------|
             D
salvaría tormentas, ciclones, dragones
        A
sin exagerar.                D|---------------------------|
                             A|--0h2--0---0------0h2-0----|
                             E|---------2-----------------|


             D                   E
Por poder mirarme en tus ojos bonitos
             A                  F#m
y vivir la gloria de estar a tu lado
                 Bm               E
porque en mí ya siento que te necesito
                D  A
que me he enamorado.

             D                   E
Por poder mirarme en tus ojos bonitos
             A                  F#m
y vivir la gloria de estar a tu lado
                  Bm             E
porque en mí ya siento que te necesito
            A
eso y más haré.

***NUEVAMENTE SE TOCA EL INTRO***

          D
Por asegurar la sonrisa de tu alma
              A
buscando equidad,
               D
yo podría empeñar lo más caro que tengo
                A
que es mi libertad.
              D                     E
y sería un honor ay amor ser tu esclavo
             A              F#m
sería tu juguete por mi voluntad
               Bm                    E
y si un día glorioso en tus brazos acabo
           A
Qué felicidad.

               D                     E
Si sería un honor ay amor ser tu esclavo
             A              F#m
sería tu juguete por mi voluntad
                Bm                   E
y si un día glorioso en tus brazos acabo
           A
qué felicidad.

***NUVEMANETE EL INTRO SOLO QUE EN LA SEGUNDA PARTE MAS LENTA***
Suggest correction
Give kudos to tab author, rate the tab!
1 2 3 4 5
comments
print report bad tab
guest
You may want to rate the tab now too:
select rating
Wanna post a correction for this tab? Suggest correction