Oops, an error
Loading. Please wait.

Llorar Tab

73 views 1 this week
no commentswrite comment
1 2 3 4 5
3 more votes to show rating
add to favorites
launch autoscroll
font size
0
reset
how to read this tab
guitar tuner
×
Best way to learn
"Llorar"
Autoscroll
slow
fast
+/-
esc
set tempo
stop
**Versión en Vivo**


*Intro:


G    Em    Am    D


(Trompetas)

e. -7-7-7-5-7-|-7-7-10-7---------------10----|
B. -----------|----------10-8-10-10/12----12-|
G. -----------|------------------------------|
D. -----------|------------------------------|
A. -----------|------------------------------|
E. -----------|------------------------------|


e. -10-10-10-10-12-------------10----10------------|
B. ----------------12-10-8--12----12----12-10-8-10-|
G. ------------------------------------------------|
D. ------------------------------------------------|
A. ------------------------------------------------|
E. ------------------------------------------------|


e. -10-10-10-10-12-------------10----10-------------|
B. ----------------12-10-8--12----12----12-10-8-7-8-|
G. -------------------------------------------------|
D. -------------------------------------------------|
A. -------------------------------------------------|
E. -------------------------------------------------|


(Acordeón)

e. -7/10-7--12-10-10-8-7------|
B. ----------------------10-8-|
G. ---------------------------|
D. ---------------------------|
A. ---------------------------|
E. ---------------------------|


*Verso:


D           G      Em    Am
Te miré llegar, ah ah,
e. ------10-7--------7-|
B. -8h10------10--8-8--|
G. --------------------|
D. --------------------|
A. --------------------|
E. --------------------|
                 D                  G      Em    Am
me acerqué a tu vida y te dejaste amar, ah ah,
e. ------12----------7-|
B. -8h10----12-10-8-8--|
G. --------------------|
D. --------------------|
A. --------------------|
E. --------------------|
           D            G    Em   Am   D
y ahora resulta que te vas.


                 G      Em    Am
Te entregué mi amor, oh oh,
               D                     G    Em    Am
me hiciste dichoso, me hiciste un favor
              D          G    Em   Am   D
y ahora me heredas el dolor.


*Coro:


  B7
Quién iba a pensar
                              Em
qué un día me habías de abandonar
   C       D
¿Quién, quién?
               G
quién iba a pensar
               Em          Am
qué un día por tí iba a llorar,
    D       G   Em        Am
llorar, llorar, oh oh oh ohh,
 D       G    Em   Am   D
ohh, llorar.


G    Em    Am    D


(Trompetas)

                "para los dolidos..."
e. -7-7-7-5-7-|-7-7-10-7---------------10----|
B. -----------|----------10-8-10-10/12----12-|
G. -----------|------------------------------|
D. -----------|------------------------------|
A. -----------|------------------------------|
E. -----------|------------------------------|


e. -10-10-10-10-12-------------10----10------------|
B. ----------------12-10-8--12----12----12-10-8-10-|
G. ------------------------------------------------|
D. ------------------------------------------------|
A. ------------------------------------------------|
E. ------------------------------------------------|


e. -10-10-10-10-12-------------10----10-------------|
B. ----------------12-10-8--12----12----12-10-8-7-8-|
G. -------------------------------------------------|
D. -------------------------------------------------|
A. -------------------------------------------------|
E. -------------------------------------------------|


(Acordeón)

e. -7/10-7--12-10-10-8-7------|
B. ----------------------10-8-|
G. ---------------------------|
D. ---------------------------|
A. ---------------------------|
E. ---------------------------|


*Verso:


D            G      Em    Am
Te dejaste amar, ah ah,
e. ----------/7-10-7-8-|
B. -----7-10-----------|
G. -7-9----------------|
D. --------------------|
A. --------------------|
E. --------------------|
             D            G       Em    Am
y te lo agradezco en vez de reprochar,
e. -15-14-12--10----10/12-|
B. --------------12-------|
G. -----------------------|
D. -----------------------|
A. -----------------------|
E. -----------------------|
                D          G   Em   Am    D
aunque hoy me inunde de llorar


                 G      Em    Am
Te entregué mi amor, oh oh,
              D                     G    Em   Am
me hiciste dichoso, me hiciste un favor,
              D          G    Em    Am    D
y ahora me heredas el dolor.


*Coro:


  B7
Quién iba a pensar
                              Em
qué un día me habías de abandonar,
   C       D
¿Quién, quién?
               G
quién iba a pensar
               Em          Am
qué un día por tí iba a llorar,
    D       G   Em        Am
llorar, llorar, oh oh oh ohh,
 D       G    Em   Am   D
ohh, llorar.


  B7
Quién iba a pensar
                              Em
qué un día me habías de abandonar,
   C       D
¿Quién, quién?
               G
quién iba a pensar
               Em          Am
qué un día por tí iba a llorar,
    D       G   Em        Am
llorar, llorar, oh oh oh ohh,
 D       G    Em   Am   D
ohh, llorar,
    G   Em   Am   D
llorar,
    G
llorar.


(Gtrra. Acústica)


e. -----------5-7-10---------|
B. -----5-7-8--------12-10-8-|
G. -5-7----------------------|
D. --------------------------|
A. --------------------------|
E. --------------------------|
Suggest correction
Give kudos to tab author, rate the tab!
1 2 3 4 5
comments
print report bad tab
guest
You may want to rate the tab now too:
select rating
Wanna post a correction for this tab? Suggest correction