Oops, an error
Loading. Please wait.

Manantial Tab

version 1
version 1

Whole song

72 views 1 this week
no commentswrite comment
1 2 3 4 5
3 more votes to show rating
add to favorites
×
Save as Personal and add changes to this tab that will be seen only by you. Learn more ›
×
You can save this tab as Personal to edit and correct it or add notes. All changes will be seen only by you. Learn more »
save as personal
new!
launch autoscroll
font size
0
reset
how to read this tab
guitar tuner
Autoscroll
slow
fast
+/-
esc
set tempo
stop
*Intro:


(Armónica)

    G                                      C     D           G
e. --------------------------------|----------------------------|
B. -15~-17-15----------------------|----------------------------|
G. -----------16-16-14----14-14/16-|-16-14----17-17-16----14-16-|
D. --------------------17----------|-------17----------17-------|
A. --------------------------------|----------------------------|
E. --------------------------------|----------------------------|


    G                                      C     D           G
e. --------------------------------|----------------------------|
B. -15~-17-15----------------------|----------------------------|
G. -----------16-16-14----14-14/16-|-16-14----17-17-16----14----|
D. --------------------17----------|-------17----------17----17-|
A. --------------------------------|----------------------------|
E. --------------------------------|----------------------------|


(mientras el Bajo toca ésta línea)

    G                             C     D     G
G. -----------------------------|----------------------|
D. -----------------------------|---2-5---4-7-5--5-----|
A. ---/7-5-----5-----/7-5-----5-|-3-----5----------7-5-|
E. -3------7-3-----3------7-3---|----------------------|


(Gtrra. Eléctrica)


e. -10/12-10-----|
B. -10/12-10-/12-|
G. ----------/12-|
D. --------------|
A. --------------|
E. --------------|


*Verso:


    G
Reconozco he sido un necio
        Bm
en las cosas del amor,
e. -------------------|
B. -------------------|
G. -14b(16)r14-12-----|
D. ---------------14~-|
A. -------------------|
E. -------------------|
          C
más con gusto pago el precio
         D
qué me cuesta cada error,
          C
yo he vendido mi amor propio
      G
para pagar tu altivez,
e. -------------------------|
B. ---------------------/12-|
G. -14b(16)r14~~~--12~~-----|
D. -------------------------|
A. -------------------------|
E. -------------------------|
      C         D          G
y no pude, por poco ya lo ves.


       G
No me des un vaso de agua
     Bm
nada vas a remediar
e. -------------------|
B. -------------------|
G. -14b(16)r14-12-----|
D. ---------------14~-|
A. -------------------|
E. -------------------|
        C
porqué mi sed es tan grande,
     D
necesita un manantial,
     C
necesito quién me quiera,
     G
necesito a quien querer,
e. ---------------------/12-10----|
B. ----------------------------12-|
G. -14b(16)r14~~~--12~~-----------|
D. -------------------------------|
A. -------------------------------|
E. -------------------------------|
 C    D        G
tú debés de saber.


*Coro:


          C           D
Yo tengo sed, yo necesito,
C       D              G
yo necesito a quién querer,
C       D            G
yo necesito a quién amar,
         C          D            G
para mi sed yo necesito un manantial.
e. -10/12-10--------------|
B. -10/12-10-12--10/12/10-|
G. ----------12---9/11/9--|
D. -----------------------|
A. -----------------------|
E. -----------------------|


          C           D
Yo tengo sed, yo necesito,
C       D              G
yo necesito a quién querer,
C       D            G
yo necesito a quién amar,
         C          D            G
para mi sed yo necesito un manantial.
e. -10/12-10--------------|
B. -10/12-10-12--10/12/10-|
G. ----------12---9/11/9--|
D. -----------------------|
A. -----------------------|
E. -----------------------|


(Armónica)

    G                                      C     D           G
e. --------------------------------|----------------------------|
B. -15~-17-15----------------------|----------------------------|
G. -----------16-16-14----14-14/16-|-16-14----17-17-16----14-16-|
D. --------------------17----------|-------17----------17-------|
A. --------------------------------|----------------------------|
E. --------------------------------|----------------------------|


    G                                      C     D           G
e. --------------------------------|----------------------------|
B. -15~-17-15----------------------|----------------------------|
G. -----------16-16-14----14-14/16-|-16-14----17-17-16----14----|
D. --------------------17----------|-------17----------17----17-|
A. --------------------------------|----------------------------|
E. --------------------------------|----------------------------|

(Gtrra. Eléctrica)

e. -10/12-10--------------|
B. -10/12-10-12--10/12/10-|
G. ----------12---9/11/9--|
D. -----------------------|
A. -----------------------|
E. -----------------------|


*Verso:


       G
Ni me amas, ni me dejas,
        Bm
ni te quedas, ni te vas,
e. -------------------|
B. -------------------|
G. -14b(16)r14-12-----|
D. ---------------14~-|
A. -------------------|
E. -------------------|
       C
y mi amor mal alimenta
       D
las migajas qué le das,
       C
yo te amo con locura
      G
pero tú te amas más,
e. -------------------------|
B. ---------------------/12-|
G. -14b(16)r14~~~--12~~-----|
D. -------------------------|
A. -------------------------|
E. -------------------------|
C    D          G
si, tú te amas más.

       G
No me des un vaso de agua
     Bm
nada vas a remediar
e. -------------------|
B. -------------------|
G. -14b(16)r14-12-----|
D. ---------------14~-|
A. -------------------|
E. -------------------|
        C
porqué mi sed es tan grande,
     D
necesita un manantial,
     C
necesito quién me quiera,
     G
necesito a quien querer,
e. ---------------------/12-10----|
B. ----------------------------12-|
G. -14b(16)r14~~~--12~~-----------|
D. -------------------------------|
A. -------------------------------|
E. -------------------------------|
 C    D        G
tú debés de saber.


*Coro:


          C           D
Yo tengo sed, yo necesito,
C       D              G
yo necesito a quién querer,
C       D            G
yo necesito a quién amar,
         C          D            G
para mi sed yo necesito un manantial.
e. -10/12-10--------------|
B. -10/12-10-12--10/12/10-|
G. ----------12---9/11/9--|
D. -----------------------|
A. -----------------------|
E. -----------------------|


          C           D
Yo tengo sed, yo necesito,
C       D              G
yo necesito a quién querer,
C       D            G
yo necesito a quién amar,
         C          D            G
para mi sed yo necesito un manantial.
e. -10/12-10--------------|
B. -10/12-10-12--10/12/10-|
G. ----------12---9/11/9--|
D. -----------------------|
A. -----------------------|
E. -----------------------|


*Outro:


(Armónica)

    G                                      C     D           G
e. --------------------------------|----------------------------|
B. -15~-17-15----------------------|----------------------------|
G. -----------16-16-14----14-14/16-|-16-14----17-17-16----14----|
D. --------------------17----------|-------17----------17----17-|
A. --------------------------------|----------------------------|
E. --------------------------------|----------------------------|
Suggest correction
Give kudos to tab author, rate the tab!
1 2 3 4 5
comments
print report bad tab
guest
Wanna post a correction for this tab? Suggest correction