Oops, an error
Loading. Please wait.

Manantial Tab

version 2
version 2

Whole song

7 views 1 this week
no commentswrite comment
1 2 3 4 5
3 more votes to show rating
add to favorites
launch autoscroll
font size
0
reset
how to read this tab
guitar tuner
×
Best way to learn
"Manantial"
Autoscroll
slow
fast
+/-
esc
set tempo
stop
*Intro:


-Armónica (C):                     -Bajo:


 /4...  (4) 4 3 (2) 2 (3) 4        3. -----------|-----------|
/(3) 3 2                           4. -----1-0---|-----1-0---|
 (3) (3)* 3 2 3 4...               5. ---------2-|---------2-|
                                   6. -2h3-------|-2h3-------|

 /4...  (4) 4 3 (2) 2 (3) 4
/(3) 3 2 
 (3) (3)* 3 2 (2) 3...


-Gtrra. Eléctrica:


1. -/12-10----|
2. --------12-|
3. -----------|
4. -----------|
5. -----------|
6. -----------|


*Verso:

 C                      D
Reconozco he sido un necio,
        C          G
en las cosas del amor,
1. -5/7-5-3-3/5-|
2. -------------|
3. -------------|
4. -------------|
5. -------------|
6. -------------|
         C              D
más con gusto pago el precio,
         C          G 
qué me cuesta cada error.

          C             D
Yo he vendido mi amor propio
      G           Em 
para pagar tu altivéz,
1. -5/7-5-3-3/5-|
2. -------------|
3. -------------|
4. -------------|
5. -------------|
6. -------------|
      C         D          G  
y no pude, por poco ya lo ves.


       C               D
No me des un vaso de agua,
      C          G
nada vas a remediar,
1. -5/7-5-3-3/5-|
2. -------------|
3. -------------|
4. -------------|
5. -------------|
6. -------------|
        C              D
porqué mi sed es tan grande,
     C             G
necesita un manantial.

     C               D
Necesito quién me quiera,
     G              Em 
necesito a quien querer,
1. -5/7-5-3-3/5-|
2. -------------|
3. -------------|
4. -------------|
5. -------------|
6. -------------|
 C    D        G
tú debés de saber.


*Coro:


G         C           D
Yo tengo sed, yo necesito,
1. -5h7-7-5-5h7-5---|
2. ---------------8-|
3. -----------------|
4. -----------------|
5. -----------------|
6. -----------------|
G       D              Em
yo necesito a quién querer,
1. -5h7-7-5-5h7-5---|
2. ---------------8-|
3. -----------------|
4. -----------------|
5. -----------------|
6. -----------------|
C       D            G
yo necesito a quién amar,
1. -5h7-7-5-5h7-5---|
2. ---------------8-|
3. -----------------|
4. -----------------|
5. -----------------|
6. -----------------|
         C           D            G
para mi sed, yo necesito un manantial.
1. -10/12-10-------------|
2. ----------12-10/12\10-|
3. ----------------------|
4. ----------------------|
5. ----------------------|
6. ----------------------|


G         C           D
Yo tengo sed, yo necesito,
1. -5h7-7-5-5h7-5---|
2. ---------------8-|
3. -----------------|
4. -----------------|
5. -----------------|
6. -----------------|
G       D              Em
yo necesito a quién querer,
1. -5h7-7-5-5h7-5---|
2. ---------------8-|
3. -----------------|
4. -----------------|
5. -----------------|
6. -----------------|
C       D            G
yo necesito a quién amar,
1. -5h7-7-5-5h7-5---|
2. ---------------8-|
3. -----------------|
4. -----------------|
5. -----------------|
6. -----------------|
         C           D            G
para mi sed, yo necesito un manantial.
1. -10/12-10-------------|
2. ----------12-10/12\10-|
3. ----------------------|
4. ----------------------|
5. ----------------------|
6. ----------------------|


*Solo:


-Armónica (C):                     -Bajo:


 /4...  (4) 4 3 (2) 2 (3) 4        3. -----------|-----------|
/(3) 3 2                           4. -----1-0---|-----1-0---|
 (3) (3)* 3 2 3 4...               5. ---------2-|---------2-|
                                   6. -2h3-------|-2h3-------|

 /4...  (4) 4 3 (2) 2 (3) 4
/(3) 3 2 
 (3) (3)* 3 2 (2) 3...


-Gtrra. Eléctrica:


1. -10/12-10-------------|
2. ----------12-10/12\10-|
3. ----------------------|
4. ----------------------|
5. ----------------------|
6. ----------------------|


*Verso:


C                  D
Ni me amas, ni me dejas,
        C            G
ni te quedas, ni te vas,
1. -5/7-5-3-3/5-|
2. -------------|
3. -------------|
4. -------------|
5. -------------|
6. -------------|
       C          D 
y mi amor mal alimenta,
       C            G
las migajas qué le das.

       C         D 
Yo te amo con locura,
      G          Em
pero tú te amas más,
1. -5/7-5-3-3/5-|
2. -------------|
3. -------------|
4. -------------|
5. -------------|
6. -------------|
C    D          G
si, tú te amas más.


       C               D
No me des un vaso de agua,
      C          G
nada vas a remediar,
1. -5/7-5-3-3/5-|
2. -------------|
3. -------------|
4. -------------|
5. -------------|
6. -------------|
        C              D
porqué mi sed es tan grande,
     C             G
necesita un manantial.

     C               D
Necesito quién me quiera,
     G              Em 
necesito a quien querer,
1. -5/7-5-3-3/5-|
2. -------------|
3. -------------|
4. -------------|
5. -------------|
6. -------------|
 C    D        G
tú debés de saber.


*Coro:


G         C           D
Yo tengo sed, yo necesito,
1. -5h7-7-5-5h7-5---|
2. ---------------8-|
3. -----------------|
4. -----------------|
5. -----------------|
6. -----------------|
G       D              Em
yo necesito a quién querer,
1. -5h7-7-5-5h7-5---|
2. ---------------8-|
3. -----------------|
4. -----------------|
5. -----------------|
6. -----------------|
C       D            G
yo necesito a quién amar,
1. -5h7-7-5-5h7-5---|
2. ---------------8-|
3. -----------------|
4. -----------------|
5. -----------------|
6. -----------------|
         C           D            G
para mi sed, yo necesito un manantial.
1. -10/12-10-------------|
2. ----------12-10/12\10-|
3. ----------------------|
4. ----------------------|
5. ----------------------|
6. ----------------------|


G         C           D
Yo tengo sed, yo necesito,
1. -5h7-7-5-5h7-5---|
2. ---------------8-|
3. -----------------|
4. -----------------|
5. -----------------|
6. -----------------|
G       D              Em
yo necesito a quién querer,
1. -5h7-7-5-5h7-5---|
2. ---------------8-|
3. -----------------|
4. -----------------|
5. -----------------|
6. -----------------|
C       D            G
yo necesito a quién amar,
1. -5h7-7-5-5h7-5---|
2. ---------------8-|
3. -----------------|
4. -----------------|
5. -----------------|
6. -----------------|
         C           D            G
para mi sed, yo necesito un manantial.
1. -10/12-10-------------|
2. ----------12-10/12\10-|
3. ----------------------|
4. ----------------------|
5. ----------------------|
6. ----------------------|


*Outro:


-Armónica:


/4...  (4) 4 3 (2) 2 (3) 4
/(3) 3 2 
 (3) (3)* 3 2 (2) 3...
Suggest correction
Give kudos to tab author, rate the tab!
1 2 3 4 5
comments
print report bad tab
guest
You may want to rate the tab now too:
select rating
Wanna post a correction for this tab? Suggest correction