Oops, an error
Loading. Please wait.

Me Gustas Bass Tab

40 views 1 this week
no commentswrite comment
1 2 3 4 5
3 more votes to show rating
add to favorites
launch autoscroll
font size
0
reset
guitar tuner
Autoscroll
slow
fast
+/-
esc
set tempo
stop
Help us to improve Ultimate-Guitar.com Take our survey!
×
INTRO

G---------------------|
D---------------------|
A--3~~~--1~~~---------|X 2
E-------------1~~~~~--|

Me gustan tus ojos  me gusta tu boca  me
G--------------------------------------------|
D--------------------------------------------|
A-----------------------------3--------------|
E-1----------------1-------------------------|


aloca, me aloca el rose de tu piel, tu presente 
G--------------------------------------------|
D--------------------------------------------|
A-1-------1-------------------------1--------|
E-------1-------------------------1----------|


tu ayer,   me gusta    me gusta todo   todo
G------------------------------------------|
D------------------------------------------|
A---------1----------------------3---------|
E-------1--------1-------------------------|


me gusta   de ti        me gustan tus manos
G--------------------------------------------|
D--------------------------------------------|
A----1--------------3------------------------|
E-------------1-------1---------------1----1-|


cuando te saludo     y sudo    sudo de nervios
G------------------------------------------|
D------------------------------------------|
A------------1-3--3-----1-------------1----|
E----------3------------------1------------|


de pensar q pudiera tocar    tu alma
G------------------------------------------|
D------------------------------------------|
A--------1-----------------1----------3----|
E--1-----------------1-----------1------1--|


me gusta tu alma   tu alma me gusta   me gustas
G-------------------------------------------|
D-------------------------------------------|
A---------1--3---3-------------1----1-------|
E-------3---------------------------------1-|


me gusta amanecer pensando q me quieres
G-------------------------------------------|
D-------------------------------------------|
A---3-----------------1------------------1--|
E---------------------------------1----1--1-|


soñarte se hizo ya el mayor de mis placeres
G------------------------------------------------|
D------------------------------------------------|
A---3-----------------1-----------------------1--|
E--------------------------------------1--1-3---3|


G----------|
D----------|
A-----1----|
E-1-3--3-1-|


me gusta todo   todo me gusta    de ti
G-------------------------------------------|
D-------------------------------------------|
A---------3--3-3------------1--1-1----------|
E-----------------------------------1--1-1--|

G-----------------------------|
D-----------------------------|
A--3~~~--1~~~1*3--------------|X 2
E----------------1--1*3*1*3*1-|


me gusta tu estilo  medio despistado
G------------------------------------------|
D------------------------------------------|
A------------------3----------1-3-----3----|
E-1----------1-------1------3--------------|

pecado  pecado fuera no soñar  tb poder tocar
G-----------------------------------------------|
D-----------------------------------------------|
A--1-----------1--------------1----------------1|
E------1-----1-------------1--------------1--1--|


tu cuerpo   de cuerpo y alma   como me gustas
G----------------------------------------------|
D----------------------------------------------|
A----------3----------2-3---3-3---------1--1-1-|
E-----1--1---1----1-3--------------------------|

me gustas
G------------------------|
D------------------------|
A------------1------1----|
E-----1--1-3--3-1-3--3---|

me gusta amanecer pensando q me quieres
G-------------------------------------------|
D-------------------------------------------|
A---3--------------3--1------------------1--|
E---------------------------------1----1--1-|


soñarte se hizo ya el mayor de mis placeres
G------------------------------------------------|
D------------------------------------------------|
A---3---------------3--1-----------------------1-|
E--------------------------------------1--1-3---3|


G----------|
D----------|
A-----1----|
E-1-3--3-1-|


me gusta todo   todo me gusta    de ti
G------------------------------------------|
D------------------------------------------|
A---------3--3-3------------1--1-1---------|
E-----------------------------------1--1-1-|


me gusta amanecer pensando q me quieres
G-------------------------------------------|
D-------------------------------------------|
A---3--------------3--1------------------1--|
E---------------------------------1----1--1-|


soñarte se hizo ya el mayor de mis placeres
G------------------------------------------------|
D------------------------------------------------|
A---3---------------3--1-----------------------1-|
E--------------------------------------1--1-3---3|


G----------|
D----------|
A-----1----|
E-1-3--3-1-|


me gusta todo   todo me gusta    de ti
G-------------------------------------------|
D-------------------------------------------|
A---------3--3-3------------1--1-1----------|
E-----------------------------------1--1-1--|

G--------|
D--------|
A--------|
E-1~~~~~-|

Espero q les guste, haganle mas adornos para q
se oiga mejor asi la tocan en el disco...


Si tienen algun comentario anecdota
chiste o lo q sea, escribanme a mi mail.. 
jcd_007@

si van a usar esta tab para algun lugar avisenme
no sean ****gandallas***** y si buscan un 
guitarrista ando en busca de banda =)
Suggest correction
Give kudos to tab author, rate the tab!
1 2 3 4 5
comments
print report bad tab
guest
You may want to rate the tab now too:
select rating
Wanna post a correction for this tab? Suggest correction