Oops, an error
Loading. Please wait.

Piromaniaco Chords

17 views 1 this week
no commentswrite comment
1 2 3 4 5
3 more votes to show rating
add to favorites
launch autoscroll
font size
0
reset
transpose
0
reset
display chords
guitar tuner
×
Best way to learn
"Piromaniaco"
Autoscroll
slow
fast
+/-
esc
set tempo
stop
Recuerdo que alguna vez me dijo mi padre: 'No esperes a que hagan las cosas,
hazlas por ti mismo', o algo asi, no le entendi muy bien, estaba ebrio. 
Pues hoy recorde esas palabras y decidi sacar la rola que habia estado esperando a que
saliera hace mucho tiempo, y aqui esta, señoras y señores, esto es Piromaniaco:


Intro: (Se acompaña con los acordes de E, D, A)

1. ----------------------------------------------2--0--0--0----
2. ----------------------------------------------3--2--0--2----
3. ----4-6-----6-4---6-----6-4---4---------------2--2--1--2----
4. --7-----7-7-----7---7-7-----7---5-6-9-7-5-7---0--2--2--2----
5. ----------------------------------------------0--0--0-------
6. ----------------------------------------------------0-------

1. -----4-6-----6-4---6-----6-4---4--------------0--0--2--0---
2. --7------7-7-----7---7-7-----7---5-6-7-5-7----0--2--3--2---
3. ----------------------------------------------1--2--2--2---
4. ----------------------------------------------2--2--0--2---
5. ----------------------------------------------2--0--0--0---
6. ----------------------------------------------0------------


A      E            D                     A
En el cesto del olvido puse todos los papeles,
E        A                   D                      A               
con las cartas y los versos cursis que ayer te escribi,
E        A                D               A
tambien puse en el mismo cesto tu fotografia,
E      A                E                     D    
no queria ni un solo recuerdo que hablara de ti.

A        E            D                  A
Ya bien loco y piromaniaco yo le prendi fuego,
E       A          D                           A
no lo niego hubo exeso de humo y es verdad llore,
E      A                    D                  A
llore tanto, con el mismo llanto apague la hoguera,
E      A                E                  D
no quisiera aceptar mislado fue que comprobe.

CORO:

D                  A 
No se quema este amor,
        E             D
no se quema, aunque queme,
       A
tus recuerdos,
D                  A
no se quema este amor,
        E           D
no se apaga, esta llama,
        A
no se apaga.

SOLO:

1. ----------------------------------------------2--0--0--0----
2. ----------------------------------------------3--2--0--2----
3. ----4-6-----6-4---6-----6-4---4---------------2--2--1--2----
4. --7-----7-7-----7---7-7-----7---5-6-9-7-5-7---0--2--2--2----
5. ----------------------------------------------0--0--0-------
6. ----------------------------------------------------0-------

1. -----4-6-----6-4---6-----6-4---4--------------0--0--2--0---
2. --7------7-7-----7---7-7-----7---5-6-7-5-7----0--2--3--2---
3. ----------------------------------------------1--2--2--2---
4. ----------------------------------------------2--2--0--2---
5. ----------------------------------------------2--0--0--0---
6. ----------------------------------------------0------------

A        E            D                  A
Ya bien loco y piromaniaco yo le prendi fuego,
E       A          D                           A
no lo niego hubo exeso de humo y es verdad llore,
E      A                    D                  A
llore tanto, con el mismo llanto apague la hoguera,
E      A                E                  D
no quisiera aceptar mislado fue que comprobe.


D                  A 
No se quema este amor,
        E             D
no se quema, aunque queme,
       A
tus recuerdos,
D                  A
no se quema este amor,
        E           D
no se apaga, esta llama,
        A
no se apaga, nooooooooo.

OUTRO:

1. ----------------------------------------------2--0--0--0----
2. ----------------------------------------------3--2--0--2----
3. ----4-6-----6-4---6-----6-4---4---------------2--2--1--2----
4. --7-----7-7-----7---7-7-----7---5-6-9-7-5-7---0--2--2--2----
5. ----------------------------------------------0--0--0-------
6. ----------------------------------------------------0-------

1. -----4-6-----6-4---6-----6-4---4--------------0--0--2--0---
2. --7------7-7-----7---7-7-----7---5-6-7-5-7----0--2--3--2---
3. ----------------------------------------------1--2--2--2---
4. ----------------------------------------------2--2--0--2---
5. ----------------------------------------------2--0--0--0---
6. ----------------------------------------------0------------


Bueno, aqui quedo la rola. Un saludo para mis padre y mi familia.
Dudas o comentario, favor de escribirme a mi e-mail. Suerte!!!
Suggest correction
Give kudos to tab author, rate the tab!
1 2 3 4 5
comments
print report bad tab
guest
You may want to rate the tab now too:
select rating
Wanna post a correction for this tab? Suggest correction