Oops, an error
Loading. Please wait.

Piromaniaco Tab

28 views 3 this week
no commentswrite comment
1 2 3 4 5
3 more votes to show rating
add to favorites
launch autoscroll
font size
0
reset
how to read this tab
guitar tuner
×
Best way to learn
"Piromaniaco"
Autoscroll
slow
fast
+/-
esc
set tempo
stop



   Intro:
   

        A                         E                D          A
e||-----------------------------|--------------------------------||
B||-----------------------------|--------------------------------||
G||-----6-----6-----6-----6-----|---------------------6/7-6------||
D||-7-9---9-7---9-7---9-7---9-7-|-9-7-6---9-7-6--6/7--------9-7--||
A||-----------------------------|--------------------------------||
E||-----------------------------|--------------------------------||


                                            E                D            A

e||-------9-------9-------9-------9-------|---------------------9/10-9-------||
B||-10-12---12-10---12-10---12-10---12-10-|-12-10-9--12-10-9/10--------12-10-||
G||---------------------------------------|----------------------------------||
D||---------------------------------------|----------------------------------||
A||---------------------------------------|----------------------------------||
E||---------------------------------------|----------------------------------||


                          E                D
  En el cesto del olvido puse todos los papeles


                                               e||-2-4/5-5-5--4-2-0--||
                                               B||-3-5/7-7-7-5-3--2--||
                                               G||-------------------||
                                               D||-------------------||
                                               A||-------------------||
                                               E||-------------------||


           A                   E                       D
  con las cartas y los versos cursis que ayer te escribi
           A                A7              D
  tambien puse en el mismo cesto tu fotografia
                                               

                        e||-------------------||
                        B||-------------------||
                        G||-------------------||
                        D||-----------------0-||
                        A||-0----2----4-------||
                        E||-------------------||


 e||-------------------||
 B||-------------------||
 G||-------------------||
 D||-0-----------------||
 A||----4--3--2--------||
 E||-------------------||



              B7                                     E
       no queria ni un solo recuerdo que hablara de ti



 e||-------------------||
 B||-------------------||
 G||-------------------||
 D||-------------------||
 A||--------0----------||
 E||--0-2-4------------||


            A             E                  D
   Ya bien loco y piromaniaco yo le prendi fuego


                                               e||-2-4/5-5-5--4-2-0--||
                                               B||-3-5/7-7-7-5-3--2--||
                                               G||-------------------||
                                               D||-------------------||
                                               A||-------------------||
                                               E||-------------------||



          A                  E                   D
  no lo niego hubo exeso de humo y es verdad lloré
         A                    A7                 D
  llore tanto, con el mismo llanto apague la hoguera


                          e||----------------------||
                          B||----------------------||
                          G||----------------------||
                          D||--------------------0-||
                          A||-0------2------4------||
                          E||----------------------||


 e||-------------------||
 B||-------------------||
 G||-------------------||
 D||-0-----------------||
 A||----4--3--2--------||
 E||-------------------||


              B7                                 E
      no quisiera aceptar tisnado fue que comprobé


    CORO:


       e||---------------||
       B||---------------||
       G||---------------||
       D||---------------||
       A||-------------0-||
       E||--0-2----4-----||




                       A
    No se quema este amor
          E             D
  no se quema, aunque queme...
          A
  tus recuerdos


       e||---------------||
       B||---------------||
       G||---------------||
       D||---------------||
       A||-------------0-||
       E||--0-2----4-----||



                       A
    no se quema este amor
          E          D
  no se acaba, esa llama
          A
  no se apaga





        A                         E                D          A
e||-----------------------------|--------------------------------||
B||-----------------------------|--------------------------------||
G||-----6-----6-----6-----6-----|---------------------6/7-6------||
D||-7-9---9-7---9-7---9-7---9-7-|-9-7-6---9-7-6--6/7--------9-7--||
A||-----------------------------|--------------------------------||
E||-----------------------------|--------------------------------||


                                            E                D            A

e||-------9-------9-------9-------9-------|---------------------9/10-9-------||
B||-10-12---12-10---12-10---12-10---12-10-|-12-10-9--12-10-9/10--------12-10-||
G||---------------------------------------|----------------------------------||
D||---------------------------------------|----------------------------------||
A||---------------------------------------|----------------------------------||
E||---------------------------------------|----------------------------------||




                          E                  D
   Ya bien loco y piromaniaco yo le prendi fuego


                                               e||-2-4/5-5-5--4-2-0--||
                                               B||-3-5/7-7-7-5-3--2--||
                                               G||-------------------||
                                               D||-------------------||
                                               A||-------------------||
                                               E||-------------------||



          A                  E                   D
  no lo niego hubo exeso de humo y es verdad lloré
         A                    A7                 D
  llore tanto, con el mismo llanto apague la hoguera


                          e||----------------------||
                          B||----------------------||
                          G||----------------------||
                          D||--------------------0-||
                          A||-0------2------4------||
                          E||----------------------||


 e||-------------------||
 B||-------------------||
 G||-------------------||
 D||-0-----------------||
 A||----4--3--2--------||
 E||-------------------||


              B7                                 E
      no quisiera aceptar tisnado fue que comprobé


    CORO:


       e||---------------||
       B||---------------||
       G||---------------||
       D||---------------||
       A||-------------0-||
       E||--0-2----4-----||




                       A
    No se quema este amor
          E             D
  no se quema, aunque queme...
          A
  tus recuerdos


       e||---------------||
       B||---------------||
       G||---------------||
       D||---------------||
       A||-------------0-||
       E||--0-2----4-----||



                       A
    no se quema este amor
          E          D
  no se acaba, esa llama
          A
  no se apaga... Noooo


   Outro:


        A                         E                D          A
e||-----------------------------|--------------------------------||
B||-----------------------------|--------------------------------||
G||-----6-----6-----6-----6-----|---------------------6/7-6------||
D||-7-9---9-7---9-7---9-7---9-7-|-9-7-6---9-7-6--6/7--------9-7--||
A||-----------------------------|--------------------------------||
E||-----------------------------|--------------------------------||


                                            E                D            A

e||-------9-------9-------9-------9-------|---------------------9/10-9-------||
B||-10-12---12-10---12-10---12-10---12-10-|-12-10-9--12-10-9/10--------12-10-||
G||---------------------------------------|----------------------------------||
D||---------------------------------------|----------------------------------||
A||---------------------------------------|----------------------------------||
E||---------------------------------------|----------------------------------||




  Transcripción por E. Estrada y E. Flores
Suggest correction
Give kudos to tab author, rate the tab!
1 2 3 4 5
comments
print report bad tab
guest
You may want to rate the tab now too:
select rating
Wanna post a correction for this tab? Suggest correction