Oops, an error
Loading. Please wait.

Que No Te Asombre Tab

34 views 1 this week
no commentswrite comment
1 2 3 4 5
3 more votes to show rating
add to favorites
launch autoscroll
font size
0
reset
how to read this tab
guitar tuner
Autoscroll
slow
fast
+/-
esc
set tempo
stop
Help us to improve Ultimate-Guitar.com Take our survey!
×
PEDIDO DEL CHINO ASTRAIN A SU CARNAL EMILIO GARCÍA 
(16/08/02).

ESTA CANCIÓN LLEVA CAPOTRASTO HUBICADO EN EL 4to TRASTE.
EN REALIDAD ESTA CANCIÓN ESTÁ EN LA BEMOL, PERO POR R
AZONES DE FACILIDAD EN EL REQUINTEO SE TRASPUSO A MI.
AQUÍ LA NOTACIÓN APARECE COMO 0 (CERO) AL AIRE 
[REALMENTE SERÍA EN EL 4to TRASTE], COMO 1 [EN EL 5to], 
COMO 2 [EN EL 6to] ...Y ASÍ SUCESIVAMENTE.


Y ASÍ ES COMO VA LA CANCIÓN...


REQUINTEO DEL INICIO (0:00 a 0:24)

                         LA                               MI
1||--------------------0--0--0--0--0-----------0--------0--0--0--0--0--
2||-----------0--------2--2--2--2--2--------2-----4--2--0--0--0--0--0--
3||--------1-----2--1--2--2--2--2--2-----2--------------1--1--1--1--1--
4||-----2--------------2--2--2--2--2--2-----------------2--2--2--2--2--
5||--2-----------------0--0--0--0--0--------------------2--2--2--2--2--
6||--------------------0--0--0--0--0--------------------0--0--0--0--0--

                      SI          LA             MI
||--------------------2--2--2--2--0--0--0--------0--0--0--0--0--
||-----------0--------0--0--0--0--2--2--2--------0--0--0--0--0--
||--------1-----2--1--2--2--2--2--2--2--2--------1--1--1--1--1--
||-----2--------------1--1--1--1--2--2--2-----2--2--2--2--2--2--
||--2-----------------2--2--2--2--0--0--0--4-----2--2--2--2--2--
||--------------------0--0--0--0--0--0--0--------0--0--0--0--0--

                        LA             *                     MI
||----------------------0--0--0--0--0-----------------0-----0--0--0--0--0--
||----------------0--2--2--2--2--2--2--------------2-----2--0--0--0--0--0--
||----------------------2--2--2--2--2-----------2-----------1--1--1--1--1--
||--------2--4/6--------2--2--2--2--2--------2--------------2--2--2--2--2--
||--2--4----------------0--0--0--0--0-----0-----------------2--2--2--2--2--
||----------------------0--0--0--0--0--0--------------------0--0--0--0--0--

                         SI          LA
||-----------------------2--2--------0--0-----------
||-----------------------0--0--------2--2-----------
||-----------------------2--2--------2--2-----------
||--------1--2--1--------1--1--------2--2-----------
||--2--4-----------4--2--2--2--2--0--0--0-----0-----
||-----------------------0--0--------0--0--0-----4--


CANCIÓN (0:25 A 1:43)


ACORDES (DE ACUERDO AL 4to TRASTE)

MI 022100

LA 002220

SI 021202 ...(SE PUEDE CAMBIAR POR 224442, O SEA CON CEJILLA)

(EL RASGUEO DE LA CANCIÓN ES HACIA ABAJO)


                              LA            MI                      SI
Joan:     Nos amaremos otro verano, en otro siglo talvez, con otros cuerpos.

                 LA   SI          MI
Marisela: Nos amaremos después de muertos.

                                  LA                MI                SI
Joan:     Nos amaremos siempre lo mismo, siempre lo mismo, por muchas vidas.

                     LA            SI       MI
Dueto:    Los mismos besos, quizas nuevas heridas.

                       SI
Joan:     Nos amaremos siempre,

                       LA
Marisela: Ay! Siempre, siempre.

                     MI                  SI
Joan:     Que no te asombre si un día te llego

                   LA  SI         MI
Dueto:    Con otra cara, con otro nombre.

                       SI
Joan:     Nos amaremos siempre,

                       LA
Marisela: Ay! Siempre, siempre.

                    MI                 SI
Joan:     Que no te asombre si en otra vida


Dueto:    Si en otra vida

                    LA
Joan:     Yo soy la dama y tú

        SI           MI
Marisela: Y yo el malhombre.

      SI LA          MI
Dueto:    Que no te asombre.


REQUINTEO (1:44 A 2:08)

* en el requinto en medio de la canción (en el min 2:01) 
hay una variación imperceptible con respecto al requinteo del principio.

                         LA                               MI
1||--------------------0--0--0--0--0-----------0--------0--0--0--0--0--
2||-----------0--------2--2--2--2--2--------2-----4--2--0--0--0--0--0--
3||--------1-----2--1--2--2--2--2--2-----2--------------1--1--1--1--1--
4||-----2--------------2--2--2--2--2--2-----------------2--2--2--2--2--
5||--2-----------------0--0--0--0--0--------------------2--2--2--2--2--
6||--------------------0--0--0--0--0--------------------0--0--0--0--0--

                      SI          LA             MI
||--------------------2--2--2--2--0--0--0--------0--0--0--0--0--
||-----------0--------0--0--0--0--2--2--2--------0--0--0--0--0--
||--------1-----2--1--2--2--2--2--2--2--2--------1--1--1--1--1--
||-----2--------------1--1--1--1--2--2--2-----2--2--2--2--2--2--
||--2-----------------2--2--2--2--0--0--0--4-----2--2--2--2--2--
||--------------------0--0--0--0--0--0--0--------0--0--0--0--0--

                        LA            *************** MI
||----------------------0--0--0--0--0--------0--------0--0--0--0--0--
||----------------0--2--2--2--2--2--2-----------4--2--0--0--0--0--0--
||----------------------2--2--2--2--2-----------------1--1--1--1--1--
||--------2--4/6--------2--2--2--2--2-----------------2--2--2--2--2--
||--2--4----------------0--0--0--0--0-----0-----------2--2--2--2--2--
||----------------------0--0--0--0--0--0--------------0--0--0--0--0--

                         SI          LA
||-----------------------2--2--------0--0-----------
||-----------------------0--0--------2--2-----------
||-----------------------2--2--------2--2-----------
||--------1--2--1--------1--1--------2--2-----------
||--2--4-----------4--2--2--2--2--0--0--0-----0-----
||-----------------------0--0--------0--0--0-----4--

CONTINUA LA CANCIÓN (2:09 A 3:40)

                               LA                MI                        SI
Joan:     Nos amaremos otros inviernos, en otro idioma talvez, será el 'te quiero'

                 LA          SI        MI
Marisela: Y como siempre será tan verdadero.

                                  LA                MI                SI
Joan:     Nos amaremos siempre lo mismo, siempre lo mismo, por muchas vidas.

                     LA            SI       MI
Dueto:    Los mismos besos, quizas nuevas heridas.

                       SI
Joan:     Nos amaremos siempre,

                       LA
Marisela: Ay! Siempre, siempre.

                     MI                  SI
Joan:     Que no te asombre si un día te llego

                   LA  SI         MI
Dueto:    Con otra cara, con otro nombre.

                       SI
Joan:     Nos amaremos siempre,

                       LA
Marisela: Ay! Siempre, siempre.

                    MI                 SI
Joan:     Que no te asombre si en otra vida


Dueto:    Si en otra vida

                    LA
Joan:     Yo soy la dama y tú

        SI           MI
Marisela: Y yo el malhombre.

      SI LA          MI
Dueto:    Que no te asombre.

      SI LA          MI
Dueto:    Que no te asombre.


...Y TAN TAN!!!
Suggest correction
Give kudos to tab author, rate the tab!
1 2 3 4 5
comments
print report bad tab
guest
You may want to rate the tab now too:
select rating
Wanna post a correction for this tab? Suggest correction