Oops, an error
Loading. Please wait.

Quiero Y Necesito Tab

87 views 1 this week
no commentswrite comment
1 2 3 4 5
3 more votes to show rating
add to favorites
launch autoscroll
font size
0
reset
how to read this tab
guitar tuner
×
Best way to learn
"Quiero Y Necesito"
Autoscroll
slow
fast
+/-
esc
set tempo
stop
Esta cancion esta dedicada para una persona
que a pesar de la distancia no poder olvidar......

         C             G    F            C
e-------------------12-15-------13-------12--
B----13-13-13-13-15----------13-------13-----
G-12----------------------14-------12--------
D--------------------------------------------
A--------------------------------------------
E--------------------------------------------
         C          G         F        C
e-------------------12-15-------13--12-------
B----13-13-13-13-15----------13--------13----
G-12----------------------14-----------------
D--------------------------------------------
A--------------------------------------------
E--------------------------------------------

   C        G7       F       C
Quiero... quiero, quiero y necesito.
  C         G7      F         C
quiero... quiero, quiero y necesito,
                        G
mirarme otra vez en tus ojos,
             F                  C
quedarme con tigo, fundirme en tu ser.
      G7            F             C
Amanecer siendo el sol... de tus valles,
      G7          F         C
amanecer junto a ti... amanecer

  C         G7        F         C
Quiero... quiero, quiero y necesito.
            G7        F         C
quiero... quiero, quiero y necesito,
                       G
sembrarte tierra prometida y
                F             C
que un soplo de vida te haga florecer.
       G7        F         C
Amanecer dando gracias al cielo
      G7            F           C
y anochecer junto a ti... anochecer.

         C             G    F            C
e-------------------12-15-------13-------12--
B----13-13-13-13-15----------13-------13-----
G-12----------------------14-------12--------
D--------------------------------------------
A--------------------------------------------
E--------------------------------------------
         C          G         F        C
e-------------------12-15-------13--12-------
B----13-13-13-13-15----------13--------13----
G-12----------------------14-----------------
D--------------------------------------------
A--------------------------------------------
E--------------------------------------------


  C         G7       F        C
Quiero... quiero, quiero y necesito.
            G7       F        C
quiero... quiero, quiero y necesito,
                         G
borrar de tu alma los temores y
           F                C
que te enamores de mi más que ayer
        G7       F          C
y amanecer enredado en tu talle
      G7         F          C
amanecer junto a ti... amanecer
     G7            F           C
amanecer siendo el sol de tus valles
      G7          F
amanecer junto a ti... amaneceeeeeeer.

         C           G      F         C
e-------------------12-15----13------12-12-
B----13-13-13-13-15---------------------13-
G-12----------------------14------12----12-
D-------------------------------------------
A-------------------------------------------
E-------------------------------------------
Suggest correction
Give kudos to tab author, rate the tab!
1 2 3 4 5
comments
print report bad tab
guest
You may want to rate the tab now too:
select rating
Wanna post a correction for this tab? Suggest correction