Oops, an error
Loading. Please wait.
20 views 1 this week
no commentswrite comment
1 2 3 4 5
3 more votes to show rating
add to favorites
launch autoscroll
font size
0
reset
how to read this tab
guitar tuner
×
Best way to learn
"Rima"
Autoscroll
slow
fast
+/-
esc
set tempo
stop
Corrección: 17/09/2010 - 20/02/2003  |
=====================================*


             A#               D#             F             A#
e. -----------------------------------------------------------|
B. -16b18r16-15~--16b18r16b18-16~--16h18b20-18~--16b18r16-15~-|
G. -----------------------------------------------------------|
D. -----------------------------------------------------------|
A. -----------------------------------------------------------|
E. -----------------------------------------------------------|

(Acompañando al acordeón)

    A#                    D#                    F               A#
e. ---------------------------------------------------------------------|
B. -----------------------------------------x-x-------------6-----------|
G. ---------------3-3-----------------3-3-3-x-x-------------5-----------|
D. -------------3-3-3-------------3h5---1-1-x-x---------5h7-----------3-|
A. -1-1-1-1-3h5-------5p3-6-6-6-6---------------8-8-8-8---------1-3h5---|
E. ---------------------------------------------------------------------|
*****esta parte suena mucho mejor si la tocas ahogando las cuerdas******


(Verso)

 A#    D#
Imagínate

mis botas vaqueras
               A#
tus tapetes persas
       D#
imagínate

mis manos callosas
               A#
y las tuyas tersas.

             D#   F
Ay, cómo que no rima
         Gm
cómo que no rima
          D#         F
llena mi vida de tristeza
         A#
y me lastima.

  A#   D#
Imagínate
                               A#
hoy sueño con la fidelidad a diario
       D#
imagínate
                               A#
el diablo probandose un escapulario.

             D#   F
Ay, cómo que no rima
         Gm
cómo que no rima
          D#         F
llena mi vida de tristeza
         A#
y me lastima.


(Coro)

      D#
Pero rima tu mirada
        A#
con mi alma enamorada
    F                         A#
y riman nuestros cuerpos al bailar.
       D#
Mira, rima tu mirada
        A#
con mi alma ilusionada
    F                       A#
y riman nuestros labios al besar.


             A#               D#             F             A#
e. -----------------------------------------------------------|
B. -16b18r16-15~--16b18r16b18-16~--16h18b20-18~--16b18r16-15~-|
G. -----------------------------------------------------------|
D. -----------------------------------------------------------|
A. -----------------------------------------------------------|
E. -----------------------------------------------------------|

(Acompañando al acordeón)

    A#                    D#                    F               A#
e. ---------------------------------------------------------------------|
B. -----------------------------------------x-x-------------6-----------|
G. ---------------3-3-----------------3-3-3-x-x-------------5-----------|
D. -------------3-3-3-------------3h5---1-1-x-x---------5h7-----------3-|
A. -1-1-1-1-3h5-------5p3-6-6-6-6---------------8-8-8-8---------1-3h5---|
E. ---------------------------------------------------------------------|


(Verso)

  A#   D#
Imagínate
                                   A#
tú de la ciudad y yo de un pueblo pobre
       D#
imagínate
                                      A#
mi orgullo esperando lo que a tí te sobre.

            D#   F
Ay como que no rima
         Gm
como que no rima
          D#         F
llena mi vida de tristeza
         A#
y me lastima


(Coro)

      D#
Pero rima tu mirada
        A#
con mi alma enamorada
    F                         A#
y riman nuestros cuerpos al bailar.
       D#
Mira, rima tu mirada
        A#
con mi alma ilusionada
    F                       A#
y riman nuestros labios al besar.
        D#
Si que rima tu mirada
        A#
con mi alma enamorada
    F                         A#
y riman nuestros cuerpos al bailar.
       D#
Mira, rima tu mirada
        A#
con mi alma ilusionada
    F                       A#
y riman nuestros labios al besar.

             A#
e. --------------|
B. -16b18r16-15~-|
G. --------------|
D. --------------|
A. --------------|
E. --------------|


Dudas o comentarios a mi correo: gerewalsh@
Suggest correction
Give kudos to tab author, rate the tab!
1 2 3 4 5
comments
print report bad tab
guest
You may want to rate the tab now too:
select rating
Wanna post a correction for this tab? Suggest correction