Oops, an error
Loading. Please wait.

Romeo Y Julieta Tab

237 views 1 this week
no commentswrite comment
1 2 3 4 5
1 last vote to show rating
add to favorites
×
Save as Personal and add changes to this tab that will be seen only by you. Learn more ›
×
You can save this tab as Personal to edit and correct it or add notes. All changes will be seen only by you. Learn more »
save as personal
new!
launch autoscroll
font size
0
reset
how to read this tab
guitar tuner
Autoscroll
slow
fast
+/-
esc
set tempo
stop
**intro**
E|0-0-2--------2-0-----------0-0-2----------------|
B|2-0-3------3-----2-0---2---2-0-3-----3-2-2------|
G|----2----2-----------2-2-------2---2-----2------|
D|-------4---------------2---------4-------2------|
A|------------------------------------------------|
E|------------------------------------------------|


       A
Me contaron de Romeo y Julieta y pense

que hermoso cuento
                             D
y ahora resulta que es mas grande mas bello esto
                      A
esto que por ti yo siento.

             D
Cruzaré los montes, los ríos, los valles,
              A
por irte a encontrar

E |--------------------|
B |--------------------|
G |--------------------|
D |--------------------|
A |--------------------|
E |2h5-2-5--7-5--------|


             D
salvaría tormentas, ciclones, dragones
        A
sin exagerar.


E |--------------------|
B |--------------------|
G |--------------------|
D |--------------------|
A |--------0-----------|
E |2h5-2-0-------------|

            D                   E
Por poder mirarme en tus ojos bonitos
             F#m
y vivir la gloria de estar a tu lado
                  E
porque en mí ya siento que te necesito
                D  A
que me he enamorado.

             D                   E
Por poder mirarme en tus ojos bonitos
             F#m
y vivir la gloria de estar a tu lado
                  E
porque en mí ya siento que te necesito
           D  A
eso y más haré.

**intro**

          D
Por asegurar la sonrisa de tu alma
              A
buscando equidad,

E |--------------------|
B |--------------------|
G |--------------------|
D |--------------------|
A |4-2-0---0-----------|
E |------2-------------|
              D
yo podría empeñar lo más caro que tengo
                A
que es mi libertad.

E |--------------------|
B |--------------------|
G |--------------------|
D |--------------------|
A |-------0------------|
E |2h5-2---------------|
             D                     E
y sería un honor ay amor ser tu esclavo
             F#m
sería tu juguete por mi voluntad
               E
y si un día glorioso en tus brazos acabo
           D A
Qué felicidad.

               D                     E
Si sería un honor ay amor ser tu esclavo
             F#m
sería tu juguete por mi voluntad
                                     E
y si un día glorioso en tus brazos acabo
           D  A
qué felicidad.

**intro**
Suggest correction
Give kudos to tab author, rate the tab!
1 2 3 4 5
comments
print report bad tab
guest
Wanna post a correction for this tab? Suggest correction