Oops, an error
Loading. Please wait.

Rumores Chords

version 2
version 2

Whole song

49 views 1 this week
no commentswrite comment
1 2 3 4 5
3 more votes to show rating
add to favorites
×
Save as Personal and add changes to this tab that will be seen only by you. Learn more ›
×
You can save this tab as Personal to edit and correct it or add notes. All changes will be seen only by you. Learn more »
save as personal
new!
launch autoscroll
font size
0
reset
transpose
0
reset
display chords
guitar tuner
Autoscroll
slow
fast
+/-
esc
set tempo
stop
Strumming
There is no strumming pattern for this song yet. and get +5 IQ
RUMORES- VERSION CORREGIDA:

Pues otra correccion, la pasada todavia ni empezaba a hacer la transcripcion y la 
habia cometido un error, pues Joan Sebastian canta a dueto con
Lisa Lopez, no Prisma. Pero ahora si la version correcta, sorry:


Intro:

1. ------------|-------------|
2. -7-5---5-7--|-7-5---5-----|
3. ------7-----|-----7---7---|
4. ------------|-------------|  X2 (Cada vez que se toca, lo acompaña
5. ------------|-------------|      un bajo).
6. ------------|-------------|


Acordes:  D Bm G A

De un tiempo a la fecha
1. ------------
2. -7-5---5-7--
3. -----7------
4. ------------
5. ------------
6. ------------
te encuentro cambiada
1. ------------
2. -7-5---5----
3. -----7---7--
4. ------------
5. ------------
6. ------------
no me haces reproches ni buscas mis brazos en la madrugada.
1. ---------------|---------------|----------------|
2. -7/8-8-7-5-7-8-|-7/8-8-7-5-7-8-|-7/8-8-7-5-7-5--|
3. ---------------|---------------|----------------|
4. ---------------|---------------|----------------|
5. ---------------|---------------|----------------|
6. ---------------|---------------|----------------|


De un tiempo a la fecha
1. ---------5----
2. -7-7-5-----7--
3. -------7------
4. --------------
5. --------------
6. --------------
lo vengo notando
1. --------------
2. -7-7-5---5----
3. -------7---7--
4. --------------
5. --------------
6. --------------
me matan los celos, corrue en mi alma, en que estoy pensando?
1. ---------------|---------------|----------------|
2. -7/8-8-7-5-7-8-|-7/8-8-7-5-7-8-|-7/8-8-7-5-7-5--|
3. ---------------|---------------|----------------|
4. ---------------|---------------|----------------|
5. ---------------|---------------|----------------|
6. ---------------|---------------|----------------|

CORO: 

   D
Sera que al dejarte sola (sola)
    Bm  
encuentras un nuevo amigo, (sola)
        A
que ocupa mi sitio, que cruel es la duda,

es el peor enemigo.

   D
Sera que al dejarte sola (sola)
    Bm
cuando me encuentro ausente (sola)
    A
tienes un amigo que ocupa tu vida,

que ocupa tu mente.

 D         Bm
Uhhhh, uh, uh, uhuh,
    A
la gente rumora un asunto importante,
 D         Bm 
uhhhh, uh, uh, uhuh,
    A
la gente rumora (la gente rumora)

la gente rumora que alguien de pueblo
                  D
esta estrenando amante.

1. ------------|-------------|
2. -7-5---5-7--|-7-5---5-----|
3. ------7-----|-----7---7---|
4. ------------|-------------|
5. ------------|-------------|
6. ------------|-------------|

Prisma:

De un tiempo a la fecha
1. ------------
2. -7-5---5-7--
3. -----7------
4. ------------
5. ------------
6. ------------
te encuentro cambiado
1. ------------
2. -7-5---5----
3. -----7---7--
4. ------------
5. ------------
6. ------------
sera que a tu ausencia, y a tu indiferencia, me habia acostumbrado.
1. ---------------|---------------|----------------|
2. -7/8-8-7-5-7-8-|-7/8-8-7-5-7-8-|-7/8-8-7-5-7-5--|
3. ---------------|---------------|----------------|
4. ---------------|---------------|----------------|
5. ---------------|---------------|----------------|
6. ---------------|---------------|----------------|

De un tiempo a la fecha
1. ---------5----
2. -7-7-5-----7--
3. -------7------
4. --------------
5. --------------
6. --------------
me estoy preguntando
1. --------------
2. -7-7-5---5----
3. -------7---7--
4. --------------
5. --------------
6. --------------
sera que me amas, o es solo tu orgullo, el que estoy lastimando.      
1. ---------------|---------------|----------------|
2. -7/8-8-7-5-7-8-|-7/8-8-7-5-7-8-|-7/8-8-7-5-7-5--|
3. ---------------|---------------|----------------|
4. ---------------|---------------|----------------|
5. ---------------|---------------|----------------|
6. ---------------|---------------|----------------|


   D
Sera que al dejarte sola (sola)
    Bm  
encuentras un nuevo amigo, (sola)
        A
que ocupa mi sitio, que cruel es la duda,

es el peor enemigo.

   D
Sera que al dejarte sola (sola)
    Bm
cuando me encuentro ausente (sola)
    A
tienes un amigo que ocupa tu vida,

que ocupa tu mente.

D         Bm
Uhhhh, uh, uh, uhuh,
    A
la gente rumora un asunto importante,
 D         Bm 
uhhhh, uh, uh, uhuh,
    A
la gente rumora (la gente rumora)

la gente rumora que alguien de pueblo
                  D
esta estrenando amante.

1. ------------
2. -7-5---5-7--
3. -----7------
4. ------------
5. ------------
6. ------------

Sola.....

1. ------------
2. -7-5---5----
3. -----7---7--
4. ------------
5. ------------
6. ------------

Sola.....

1. ------------
2. -7-5---5-7--
3. -----7------
4. ------------
5. ------------
6. ------------

Sola.....

(Fade out)


VERSION CORREGIDA, dudas o comentarios a mi mail. Suerte!!!
Suggest correction
Give kudos to tab author, rate the tab!
1 2 3 4 5
comments
print report bad tab
guest
Wanna post a correction for this tab? Suggest correction