Oops, an error
Loading. Please wait.

Sublime Maldicion Chords

64 views 1 this week
no commentswrite comment
1 2 3 4 5
3 more votes to show rating
add to favorites
×
Save as Personal and add changes to this tab that will be seen only by you. Learn more ›
×
You can save this tab as Personal to edit and correct it or add notes. All changes will be seen only by you. Learn more »
save as personal
new!
launch autoscroll
font size
0
reset
transpose
0
reset
simplify chords
display chords
guitar tuner
Autoscroll
slow
fast
+/-
esc
set tempo
stop
Strumming
There is no strumming pattern for this song yet. and get +5 IQ
Esta es una SUPER ROLA DEDICADA PARA (3M) !!!!! ojalá y les guste

REQUINTO!!!

e--8-------10----8-------10----8-------8----------------------12-10-8----12-10-8----12-8------
B----10-------10---10-------10---10------10-8---------8-10-12---------12---------12-----------
G-------10------------10------------10--------9--9-10-----------------------------------------
D---------------------------------------------------------------------------------------------
A---------------------------------------------------------------------------------------------
E---------------------------------------------------------------------------------------------


e--8-------10----8-------10----8-------8----------------------12-10-8----12-10-8----12-8------
B----10-------10---10-------10---10------10-8---------8-10-12---------12---------12------12-8-
G-------10------------10------------10--------9--9-10-----------------------------------------
D---------------------------------------------------------------------------------------------
A---------------------------------------------------------------------------------------------
E---------------------------------------------------------------------------------------------


            Am                  
Sublime maldición
F                       C        
de recordarte cien por ciento
     E7       Am                  
tus besos, tu aliento,
    F                     
tu boca un diente chueco
     C                 E7      
ya lo sé, nunca me libraré
                    Am       
de esta sublime maldición.
                     

             Am 
Sublime maldición
 F              C         
de recordarte desnuda
   E7        Am                 
graciosa, huesuda
     F                   C      
ay cuánto no daria por besar
               E7    
tu escondido lunar
   F                  
y nada,
                C      
nada tengo de derecho
    E7     
tan solo
                 Am       
esta sublime maldición.

            Am                    
Sublime maldición
F                C                                   
al recordar tu mirada    
    E7    Am         
la rosa salada
      F                 
del llanto y el dolor   
          C           
que te causé
             E7      
nunca me libraré
                   Am        
de esa sublime maldición.
                   
             Am       
Sublime maldición
 F               C          
al recordarte desnuda... 

SALUDOS A LA FAMILIA DE XOXOCOTLA!!!!
... OMAR.
Suggest correction
Give kudos to tab author, rate the tab!
1 2 3 4 5
comments
print report bad tab
guest
Wanna post a correction for this tab? Suggest correction