Oops, an error
Loading. Please wait.

Tu Y Yo Tab

69 views 1 this week
no commentswrite comment
1 2 3 4 5
3 more votes to show rating
add to favorites
launch autoscroll
font size
0
reset
how to read this tab
guitar tuner
Autoscroll
slow
fast
+/-
esc
set tempo
stop
Help us to improve Ultimate-Guitar.com Take our survey!
×
Primero que nada  mil disculpas a todos, pues me fije que en algunas rolas
que he transcribido se me han ido unas notas de mas o mal acomodadas,
como en Rumores, Piromaniaco y El Camino del Amor, pero ya ni modo, asi
que si desean las notas ya corregidas me pueden escribir a mi mail y yo se
las mando con mucho gusto, una vez mas lo siento. Bueno, este es el tab
de la rola que comparten Joan Sebastian y Maribel Guardia.


Intro:

1. -----5---2h3p2--2------5---2--2--|
2. ---3---3--------3----3---3----3--|
3. -2--------------2--2----------2--|
4. ----------------0-------------0--|
5. ----------------0-------------0--|
6. ---------------------------------|
                                    
                                                            Muchas
                                                             veces
1. -5-2-2-2-2-2-3-2-2-0-2-|-2-2-2-3-2-2-0-2-|-2-2-2-3-2-2-0-|--2--|
2. -----3-3-3-3-5-3-3-2-3-|-3-3-3-5-3-3-2-3-|-3-3-3-5-3-3-2-|--3--|
3. -----------------------|-----------------|---------------|--2--|
4. -----------------------|-----------------|---------------|--0--|
5. -----------------------|-----------------|---------------|--0--|
6. -----------------------|-----------------|---------------|-----|

-TROMPETAS

1. --5h7-5---5--|
2. --------5----|
3. -------------|
4. -------------|X2
5. -------------|
6. -------------|


 D                           Bm
Dos piedras que rodando ni soñaban en chocar,
      G                     A
dos piedras de caminos diferentes,
 D                            Bm
dos almas que al unirse no pudieron mas que amar,
  G                     A
amar contra marea, contra corriente.

 G                            A
Yo amo el campo, amo mi libertad,
 G                           A
yo casi amo el smoke de la cuidad.

CORO:

 G             A
Tu y yo, tu y yo,
 G             A
tu y yo, tu y yo,
       D
tu y yooo. 

1. --5h7-5---5--|
2. --------5----|
3. -------------|
4. -------------|X2
5. -------------|
6. -------------|


 D                                 Bm
Me gusta un buen caballo, con el viento cabalgar,
  G                          A
prefiero la comodidad de un coche,
 D                            Bm
buscamos nuestros sueños y deseos empatar,
   G                           A
y somos como el dia y como la noche.

 G                         A
Me gusta ser sencillo y natural,
 G                             A
solo te falta un toque intelectual.


G             A
Tu y yo, tu y yo,
 G             A
tu y yo, tu y yo,
       D
tu y yooo.

1. --5h7-5-----5--|
2. --------5-5----|
3. ---------------|
4. ---------------|
5. ---------------|
6. ---------------|

1. --5h7p5-----2-2-2-2-3-2-2-0-2-|-2-2-2-3-2-2-0-2-|-2-2-2-3-2-2-2--|
2. --------5-3-3-3-3-3-5-3-3-2-3-|-3-3-3-5-3-3-2-3-|-3-3-3-5-3-3-0--|
3. ------------------------------|-----------------|----------------|
4. ------------------------------|-----------------|----------------|
5. ------------------------------|-----------------|----------------|
6. ------------------------------|-----------------|----------------|

D D D D D D D D D

-TROMPETAS

1. --5h7-5---5--|
2. --------5----|
3. -------------|
4. -------------|X2
5. -------------|
6. -------------|

D                                 Bm
Me gusta un buen caballo, con el viento cabalgar,
  G                          A
prefiero la comodidad de un coche,
 D                            Bm
buscamos nuestros sueños y deseos empatar,
   G                           A
y somos como el dia y como la noche.

 G                         A
Me gusta ser sencillo y natural,
 G                             A
solo te falta un toque intelectual.


G             A
Tu y yo, tu y yo,
 G             A
tu y yo, tu y yo,
       D
tu y yooo.

1. --5h7-5---5--|
2. --------5----|
3. -------------|
4. -------------|X2
5. -------------|
6. -------------|


Bueno, eso es everything, dudas o comentarios a mi mail, porfa.
Suerte!!!
Suggest correction
Give kudos to tab author, rate the tab!
1 2 3 4 5
comments
print report bad tab
guest
You may want to rate the tab now too:
select rating
Wanna post a correction for this tab? Suggest correction