Oops, an error
Loading. Please wait.

Un Manantial De Llanto Tab

version 1
version 1

Whole song

40 views 1 this week
no commentswrite comment
1 2 3 4 5
3 more votes to show rating
add to favorites
launch autoscroll
font size
0
reset
how to read this tab
guitar tuner
Autoscroll
slow
fast
+/-
esc
set tempo
stop
Help us to improve Ultimate-Guitar.com Take our survey!
×
Esta rola esta bien extra super mega fregona desde letra
hasta musica, asi que ojala y les guste... El Intro puede
estar a una o dos cuerdas, por lo que les aconsejo probarlo
y ustedes decidir como se oye mejor, pero a mi oido
parece que es a dos. Bueno, de todos modos ahi les va...
/=deslizar(Slide)


E-16-16-16-16-16-16/18-16-15-15-18-15-16-15-13-13-16---
B-18-18-18-18-18-18/20-18-16-16-20-16-18-16-14-14-18---
G------------------------------------------------------
D------------------------------------------------------
A------------------------------------------------------
E------------------------------------------------------

E-13-13-13-13-11-13-11---------------------------------
B-14-14-14-14-13-14-13---------------------------------
G------------------------------------------------------
D------------------------------------------------------
A------------------------------------------------------
E------------------------------------------------------

G#-D#-C#-G#
(Para la musica...)
                            Cm          C#
Por la dicha fugaz de haberte conocido
                           D#           G#
no exente la pena de sufrir tu olvido
                           Cm              C#
Por la infantil idea de aquel primer beso
                              D#
por eso estoy aqui de mi deseo preso.

     C#       G#
Por eso, por eso...
(Para la musica...)

                         Cm           C#
Por que te conoci y solamente muerto
                        D#             G#
habria florecido tu amor en mi huerto
                                    Cm
Por la inconciencia cruel de haberme enamorado
    C#             D#
de ti verdugo amor, tierno pecado.

     C#                          G#
Por eso, por eso y por quererte tanto
                 D#                     G#
mis ojos se volvieron un manantial de llanto.

                  C#   D#
Un manantial de llanto
                 G#
donde ahogo las penas
                 D#   C#
desde que tu te fuiste
                    G#
ya no hay horas serenas

                  C#   D#
Un manantial de llanto
                   G#
con que riego los nardos
                  D#
que florecen en mi alma
 C#               G#
juntito a tus recuerdos.

(Se repite el intro...)


E-16-16-16-16-16-16/18-16-15-15-18-15-16-15-13-13-16---
B-18-18-18-18-18-18/20-18-16-16-20-16-18-16-14-14-18---
G------------------------------------------------------
D------------------------------------------------------
A------------------------------------------------------
E------------------------------------------------------

E-13-13-13-13-11-13-11---------------------------------
B-14-14-14-14-13-14-13---------------------------------
G------------------------------------------------------
D------------------------------------------------------
A------------------------------------------------------
E------------------------------------------------------

G#-D#-C#-G#
(Para la musica...)

                            Cm          C#
Por un ????? error y haberme equivocado
                           D#            G#
un debo y pagare de por vida he firmado
                               Cm
Y porque aun sin derecho sigo enamorado
    C#             D#
de ti verdugo amor, tierno pecado.

     C#                          G#
Por eso, por eso y por quererte tanto
                 D#                     G#
mis ojos se volvieron un manantial de llanto.


                  C#   D#
Un manantial de llanto
                 G#
donde ahogo las penas
                 D#   C#
desde que tu te fuiste
                    G#
ya no hay horas serenas

                  C#   D#
Un manantial de llanto
                   G#
con que riego los nardos
                  D#
que florecen en mi alma
 C#               G#
juntito a tus recuerdos.

(Para la musica...)

Un manantial...
(Aqui lleva G# y el rasgueo es rapido y asi:
Abajo-Arriba-Abajo)
                  C#   D#
Un manantial de llanto
                 G#
donde ahogo las penas
                 D#   C#
desde que tu te fuiste
                    G#
ya no hay horas serenas

                  C#   D#
Un manantial de llanto
                   G#
con que riego los nardos
                  D#
que florecen en mi alma
(Para la musica...)
                  G#
juntito a tus recuerdos.


(Aqui se oye este arpeggio)
E-8/9-8-6-6/8-8------------
B--------------------------
G--------------------------
D--------------------------
A--------------------------
E--------------------------

Pues ahi esta la rola hecha. Ojala y les guste.
Aparte de Bose, Joan Sebastian tambien me pasa un buen.
Suggest correction
Give kudos to tab author, rate the tab!
1 2 3 4 5
comments
print report bad tab
guest
You may want to rate the tab now too:
select rating
Wanna post a correction for this tab? Suggest correction