Oops, an error
Loading. Please wait.

Un Vaquero En La Cuidad Tab

26 views 1 this week
no commentswrite comment
1 2 3 4 5
3 more votes to show rating
add to favorites
launch autoscroll
font size
0
reset
how to read this tab
guitar tuner
×
Best way to learn
"Un Vaquero En La Cuidad"
Autoscroll
slow
fast
+/-
esc
set tempo
stop
(Intro)

e. ------------------------------------------------------------------|
B. -----------------------------2p1---4------------------------------|
G. ---------3-3-3--------3-3-3--3---3-3h5-3---------3-3--------3-3-3-|
D. -----3-5----------3-5--------------------5-3-3h5--------3h5-------|
A. -3h5----------3h5-----------------------------------3h5-----------|
E. ------------------------------------------------------------------|

*Acordeón
                D#                                         A#
e. ----------------------------------------------------13-10p8-10~-|
B. -13-13-13-13-13-11----13-13-13-13-11----13-13-13-11-------------|
G. ----------------------------------------------------------------|
D. -------------------13----------------13-------------------------|
A. ----------------------------------------------------------------|
E. ----------------------------------------------------------------|

*Gtra. Eléctrica

e. -------------------------------|
B. -(14)r13p11-13b14r13p11----11~-|
G. ------------------------12-----|
D. -------------------------------|
A. -------------------------------|
E. -------------------------------|

*Acordeón
                D#                                         A#
e. ----------------------------------------------------------------|
B. -13-13-13-13-13-11----13-13-13-13-11----13-13-13-11----11-------|
G. ----------------------------------------------------12----12p10-|
D. -------------------13----------------13-------------------------|
A. ----------------------------------------------------------------|
E. ----------------------------------------------------------------|

*Gtra. Eléctrica

e. -13b14r13-10~-|
B. -13b14r13-11~-|
G. --------------|
D. --------------|
A. --------------|
E. --------------|

(Verso)

      A#
Le pusieron un saquito a cuadros
              D#
de un estilo real
             A#
príncipe de Gales
                  D#
y para colmo de males
e. --------------------------------|
B. --------------------------------|
G. ---------------------3-5b6r5-3~-|
D. ---------------3-3/5------------|
A. --------------------------------|
E. --------------------------------|
               A#
una corbata Versace.
e. -----------------------------6-(9)r8p6-13-(14)r13-10-|
B. -------------------------6-8--------------(14)r13-11-|
G. -------------------3-5h7-----------------------------|
D. ---------------3h5-----------------------------------|
A. -----------------------------------------------------|
E. -----------------------------------------------------|

     A#
Le dijieron como manejarse
        D#
en sociedad
                      A#
y le escondieron las botas
                    D#
ay, yo no sé si lo notas
e. ----------------------------------|
B. ----------------------------------|
G. -----------------------3----------|
D. -------------------3h5---3h5-3----|
A. -------------------------------6~-|
E. ----------------------------------|
                   A#
pero tropieza al andar.
e. -------------------------------13-12-11-----------------|
B. --------------------(14)r13p11----------11h13p11----11~-|
G. -------------------------------------------------12-----|
D. --------------------------------------------------------|
A. --------------------------------------------------------|
E. --------------------------------------------------------|

(Coro)

                D#
¿Qué es lo que hace ahí?

¿Qué es lo que hace? sí
                    A#
Un vaquero en la ciudad.
e. -----------------------------------------------------|
B. ----------------------------11-13b14r13p11-13----11~-|
G. ----------------------10h12-------------------12-----|
D. -----------------------------------------------------|
A. -----------------------------------------------------|
E. -----------------------------------------------------|

                D#
¿Qué es lo que hace ahí?

¿Qué es lo que hace? sí
                    A#
Un vaquero en la ciudad.
e. -----------------6-6-6-6...-|
B. -----------------6-6-6-6...-|
G. -----------------7-7-7-7...-|
D. -----------------8-8-8-8...-|
A. -----------------8-8-8-8...-|
E. -----------------6-6-6-6...-|

*Acordeón
                D#                                         A#
e. ----------------------------------------------------13-10p8-10~-|
B. -13-13-13-13-13-11----13-13-13-13-11----13-13-13-11-------------|
G. ----------------------------------------------------------------|
D. -------------------13----------------13-------------------------|
A. ----------------------------------------------------------------|
E. ----------------------------------------------------------------|

*Gtra. Eléctrica

e. -------------------------|
B. -----------------6-------|
G. -----------3-5h7---3/5/3-|
D. -----3-3h5---------------|
A. -3h5---------------------|
E. -------------------------|

*Acordeón
                D#                                         A#
e. ----------------------------------------------------------------|
B. -13-13-13-13-13-11----13-13-13-13-11----13-13-13-11----11-------|
G. ----------------------------------------------------12----12p10-|
D. -------------------13----------------13-------------------------|
A. ----------------------------------------------------------------|
E. ----------------------------------------------------------------|

*Gtra. Eléctrica

e. ------------------------------|
B. -----11-13b14-13-11-----------|
G. -/10----------------12--------|
D. -----------------------8h10p8-|
A. ------------------------------|
E. ------------------------------|

(Verso)

     A#
Le dijieron que el amor es libre
             D#
libre para volar
                   A#
y le cortaron las alas
e. --------------------------------------------|
B. ----------------13b14r13-11-13p11-13b14-11~-|
G. --------------------------------------------|
D. --------------------------------------------|
A. --------------------------------------------|
E. --------------------------------------------|
                     D#
ay, le cortaron las alas
             A#
que contrariedad.
e. -------------------------------------------|
B. --------------------------6-----6----------|
G. --------------------3-5/7---7/5---7-6-5-3~-|
D. --------------3-3h5------------------------|
A. ----------3h5------------------------------|
E. -------------------------------------------|

     A#
Le dijieron como manejarse
        D#
en sociedad
                      A#
y le escondieron las botas
                    D#
ay, yo no sé si lo notas
                   A#
pero tropieza al andar.
e. -----------------------------------13--13-10-13b15-13-10---------|
B. ---------------------------11-13h15------------------------13-11-|
G. -------------------10-10h12--------------------------------------|
D. --------------10h12----------------------------------------------|
A. -----------------------------------------------------------------|
E. -----------------------------------------------------------------|

(Coro)

                D#
¿Qué es lo que hace ahí?

¿Qué es lo que hace? sí
                    A#
Un vaquero en la ciudad.
e. -----------------------------------------------------------|
B. ------------------------11-15b16-15------------------------|
G. ------------------10h12-------------15~-15b16-12-----------|
D. -------------------------------------------------13-13-12~-|
A. -----------------------------------------------------------|
E. -----------------------------------------------------------|

                D#
¿Qué es lo que hace ahí?

¿Qué es lo que hace? sí
                    A#
Un vaquero en la ciudad.
e. -----------------6-6-6-6...-|
B. -----------------6-6-6-6...-|
G. -----------------7-7-7-7...-|
D. -----------------8-8-8-8...-|
A. -----------------8-8-8-8...-|
E. -----------------6-6-6-6...-|

*Acordeón
                D#                                         A#
e. ----------------------------------------------------13-10p8-10~-|
B. -13-13-13-13-13-11----13-13-13-13-11----13-13-13-11-------------|
G. ----------------------------------------------------------------|
D. -------------------13----------------13-------------------------|
A. ----------------------------------------------------------------|
E. ----------------------------------------------------------------|

*Gtra. Eléctrica

e. --------------13b15-(15)-13~-|
B. -----11-13-11----------------|
G. -/12-------------------------|
D. -----------------------------|
A. -----------------------------|
E. -----------------------------|

*Acordeón
                D#                                         A#
e. ----------------------------------------------------------------|
B. -13-13-13-13-13-11----13-13-13-13-11----13-13-13-11----11-------|
G. ----------------------------------------------------12----12p10-|
D. -------------------13----------------13-------------------------|
A. ----------------------------------------------------------------|
E. ----------------------------------------------------------------|

*Gtra. Eléctrica

e. -----------------------6~-|
B. -------------------6-8----|
G. -5/6-7-3h5-3-----7--------|
D. -------------3-0----------|
A. --------------------------|
E. --------------------------|

*Acordeón

   D#                                  A#
e. ---6---------------------------------------------------|
B. -----8-8-6---------------------------------------------|
G. -----------8-8----8--8-8---8--8-------7-8-7---------7~-|
D. -8--------------8--------8------8-7-8-------10-8-10----|
A. -------------------------------------------------------|
E. -------------------------------------------------------|

*Gtra. Eléctrica

e. ----------------------13-15p13-------------|
B. -------11-13-11-13/15----------(14)r13p11~-|
G. -10h12-------------------------------------|
D. -------------------------------------------|
A. -------------------------------------------|
E. -------------------------------------------|

                D#
¿Qué es lo que hace ahí?

¿Qué es lo que hace? sí
                    A#
Un vaquero en la ciudad.
e. ------------------6-----6~-|
B. --------------------6-8----|
G. ---------------------------|
D. ---------------------------|
A. ---------------------------|
E. ---------------------------|

(Outro)

e. ------------------------------|
B. ------------------------------|
G. -5b6r5p3---3------------------|
D. ---------5---5-4-3-----3------|
A. -------------------3-5--------|
E. -------------------------4-6~-|
Suggest correction
Give kudos to tab author, rate the tab!
1 2 3 4 5
comments
print report bad tab
guest
You may want to rate the tab now too:
select rating
Wanna post a correction for this tab? Suggest correction