Oops, an error
Loading. Please wait.

The Divers Wife Tab

424 views 1 this week
2 commentsread comments
1 2 3 4 5
2 more votes to show rating
add to favorites
launch autoscroll
font size
0
reset
how to read this tab
guitar tuner
Autoscroll
slow
fast
+/-
esc
set tempo
stop
Help us to improve Ultimate-Guitar.com Take our survey!
×
e-17-20-19-------17----19----------------17----20-----------|
b----------20-17----20-------17----20-17----19--------------|
g-------------------------17----19--------------------------|
d-----------------------------------------------------------|
a-0---------------------------------------------------------|
e-----------------------------------------------------------|

This is just the intro riff for the bootlegged versions of The Diver's Wife that 
currently exist. It sounds so noice; Joanna is amazing.

Mx
Suggest correction
Give kudos to tab author, rate the tab!
1 2 3 4 5
comments
print report bad tab
2 comments total.
0 reply
toine 1,219 Jan 07, 2013 06:29 PM

I gave it 4stars. if you listen closely some notes are off.
xx xx
e-17-20-19-------17------------------------17-----20--------|
b----------20-17----20-17------17----20--17----20-----------|
g-------------------------17------19------------------------|
d-----------------------------------------------------------|
a-----------------------------------------------------------|
e-----------------------------------------------------------|

but nice job! :)

0 reply
toine 1,219 Jan 07, 2013 06:55 PM

^^ my tab is messed up :s

guest
You may want to rate the tab now too:
select rating
Wanna post a correction for this tab? Suggest correction