Oops, an error
Loading. Please wait.

Bearing The Serpents Lamb tab

version 3
version 3

Whole song

Interactive

885 views 1 this week
no commentswrite comment
1 2 3 4 5
3 more votes to show rating
add to favorites
×
Save as Personal and add changes to this tab that will be seen only by you. Learn more ›
×
You can save this tab as Personal to edit and correct it or add notes. All changes will be seen only by you. Learn more »
launch autoscroll
font size
0
reset
how to read this tab
guitar tuner
edit
Autoscroll
slow
fast
+/-
esc
set tempo
stop
Artist: Job For A Cowboy
Song: Bearing The Serpents Lamb
Album: Genesis
Tuning: Bb F Bb Eb G C 

INTRO:
||--------------------------------||
||--------------------------------||
||--------------------------------||
||-2~---2-------------------------||
||-2~-----3-2-3-2---2-----1-------||
||-2~-------------5---5-2---5-1---||       
                                                       
||-----------------------------------------------------------||
||-----------------------------------------------------------||
||-----------------------------------------------------------||
||------2h5p2-------------5h8p5-------------2h5p2------------||
||-----------------------------------------------------------||
||--2-1-------5-2-5-2-5-4-------8-5-8-5-2-1-------5-2-5-2----||       

||----------------------------------||
||----------------------------------||
||----------------------------------||
||----------------------------------||
||-----2---2-3----------------------||
||-222---2-----1-11111111111111-----||

||------------------------------------------------------------||
||------------------------------------------------------------||
||------------------------------------------------------------||
||------5h8p5-------------8h11p8-------------5h8p5------------||
||------------------------------------------------------------||
||--5-4-------8-5-8-5-8-7--------8-5-8-5-5-4-------8-5-8-5----||       

||----------------------------------||
||----------------------------------||
||----------------------------------||
||----------------------------------||
||-----2---2-3----------------------||
||-222---2-----1-11111111111111-----||

||----------------------------------------------------||
||----------------------------------------------------||
||----------------------------------------------------||
||----------------------------------------------------||
||-2-----2-----2-------1-----5-----5-----5-------4h7--||
||---2-2---2-2---2-2-5---5-----5-5---5-5---5-5-8------||

||-----------------------------------------------------||
||-----------------------------------------------------||
||-----------------------------------------------------||
||-----------------------------------------------------||
||-2-----2-----2-------1----5-------4h7-8--------7h10--||
||---2-2---2-2---2-2-5---5----5-5-8-------8-8-11-------||

||------------------------------------------------------||
||------------------------------------------------------||
||------------------------------------------------------||
||------------------------------------------------------||
||-5-----5-----5-------4-----8-----8-----8--------7h10--||
||---5-5---5-5---5-5-8---8-----8-8---8-8---8-8-11-------||

||-----------------------------------------------------------||
||-----------------------------------------------------------||
||-----------------------------------------------------------||
||-----------------------------------------------------------||
||-5-----5-----5-------4----8--------7h10-11----------10h13--||
||---5-5---5-5---5-5-8---8----8-8-11---------11-11-14--------||

||-----------------------------------------------||
||-----------------------------------------------||
||-4----4-----3----------------------------------||
||----------------4------5-----5-----5---4---8---||
||--2-2---2-2---2---2-5--------------------------||
||-------------------------5-5---5-5---5---5-----||          

||-----------------------------------------------||
||-----------------------------------------------||
||-4----4-----3----------3-----3-----2---2---2---||
||----------------4------------------------------||
||--2-2---2-2---2---2-5----1-1---1-1---1---1-----||
||-----------------------------------------------||          

||-----------------------------------------------||
||-----------------------------------------------||
||-7----7-----6----------------------------------||
||----------------7------8-----8-----8---7---11--||
||--5-5---5-5---5---5-8--------------------------||
||-------------------------8-8---8-8---8---8-----||          

||-----------------------------------------------||
||-----------------------------------------------||
||-7----7-----6----------6-----6-----5---5---5---||
||----------------7------------------------------||
||--5-5---5-5---5---5-8----4-4---4-4---4---4-----||
||-----------------------------------------------||          

||----------------------------------------------------||
||----------------------------------------------------||
||----------------------------------------------------||
||----------------------------------------------------||
||-2-----2-----2-------1-----5-----5-----5-------4h7--||
||---2-2---2-2---2-2-5---5-----5-5---5-5---5-5-8------||

||-----------------------------------------------------||
||-----------------------------------------------------||
||-----------------------------------------------------||
||-----------------------------------------------------||
||-2-----2-----2-------1----5-------4h7-8--------7h10--||
||---2-2---2-2---2-2-5---5----5-5-8-------8-8-11-------||

||------------------------------------------------------||
||------------------------------------------------------||
||------------------------------------------------------||
||------------------------------------------------------||
||-5-----5-----5-------4-----8-----8-----8--------7h10--||
||---5-5---5-5---5-5-8---8-----8-8---8-8---8-8-11-------||

||-----------------------------------------------------------||
||-----------------------------------------------------------||
||-----------------------------------------------------------||
||-----------------------------------------------------------||
||-5-----5-----5-------4----8--------7h10-11----------10h13--||
||---5-5---5-5---5-5-8---8----8-8-11---------11-11-14--------||

   x4
||-------------------------------------------------||
||o-----------------------------------------------o||
||-------------------------------------------------||
||------------------------------------------1h4----||
||o-----------2-3---3---3-------2-3-----2---------o||
||--2-222-222-----2---2---1-111-----111---1--------||

||-----------------------------------------------------------||
||-----------------------------------------------------------||
||-----------------------------------------------------------||
||------2h5p2-------------5h8p5-------------2h5p2------------||
||-----------------------------------------------------------||
||--2-1-------5-2-5-2-5-4-------8-5-8-5-2-1-------5-2-5-2----||       

||----------------------------------||
||----------------------------------||
||----------------------------------||
||----------------------------------||
||-----2---2-3----------------------||
||-222---2-----1-11111111111111-----||

||------------------------------------------------------------||
||------------------------------------------------------------||
||------------------------------------------------------------||
||------5h8p5-------------8h11p8-------------5h8p5------------||
||------------------------------------------------------------||
||--5-4-------8-5-8-5-8-7--------8-5-8-5-5-4-------8-5-8-5----||       

||----------------------------------||
||----------------------------------||
||----------------------------------||
||----------------------------------||
||-----2---2-3----------------------||
||-222---2-----1-11111111111111-----||

 x2                 
||---------------------------------||
||o-------------------------------o||
||---------------------------------||
||--------5------------------------||
||o----------3--2--4-----3--------o||
||--2--1--------------2-----2--1---||     

 x2                 
||---------------------------------||
||o-------------------------------o||
||---------------------------------||
||--------8------------------------||
||o----------6--5--7-----6--------o||
||--5--4--------------5-----5--4---|| 

        x3
||---------------------------------------------||
||o-------------------------------------------o||
||---------------------------------------------||
||----------2h5-4------------------------------||
||o-----2-------------------------------------o||
||--222---2-------000-000-2-000-000-1-000-000--||
         
||------------------------------||
||------------------------------||
||------------------------------||
||----------2h5-4---------------||
||------2-----------------------||
||--222---2-------000-000-2--1--||

  x2
||---------------------------------------------||
||o--------------------------------------------||
||---------------------------------------------||
||---------------------------------------------||
||o--7-3---3---3-2---7---7---6---8---8---7-----||
||-------2---2-----2---0---0---0---0---0---10--|| 

||-----------------------------------------------||
||----------------------------------------------o||
||-----------------------------------------------||
||-----------------------------------------------||
||---7-3---3---3-2---7---7---6---8---8---7------o||
||-------2---2-----2---0---0---0---0---0---10/---|| 

||-----------------------------------------------||
||-----------------------------------------------||
||-----------------------------------------------||
||-7---------------------7-----------------------||
||---8---8---8-7-4---------8---8---8-7-4---------||
||-----0---0-----------------0---0-------0-0-0-0-||

||--------------------------------------------------||
||--------------------------------------------------||
||--------------------------------------------------||
||-7------------------------------------------------||
||---8---8---8-7-4-----0h4-7-4---4---4-8-5---5---5--||
||-----0---0-------0-0---------0---0-------0---0----||

||---------------------------------------------------||
||---------------------------------------------------||
||---------------------------------------------------||
||-7-----------------------7-------------------------||
||---8---8---8-7-4-----5h8---8---8---8-7-4-----------||
||-----0---0-------0-0---------0---0-------0-0-0-0---||

||--------------------------------------------------||
||--------------------------------------------------||
||--------------------------------------------------||
||-7------------------------------------------------||
||---8---8---8-7-4-----0h4-7-4---4---4-8-5---5---5--||
||-----0---0-------0-0---------0---0-------0---0----||

||---------------------------------------------------------------||
||---------------------------------------------------------------||
||---------------------------------------------------------------||
||---------------------------------------------------------------||
||-5-----------------------5-----------------5---5-4---8---8-7---||     
||---8-0-8-0-8-7-4-0-0-0-0---8-0-8-0-8-7-4-0---0-----0---0-------||

||-------------------------------------------------------------------||
||o-----------------------------------------------------------------o||
||-------------------------------------------------------------------||
||-------------------------------------------------------------------||
||o-5-----------------------5-----------------8---8-7---11---11-10--o||      
||----8-0-8-0-8-7-4-0-0-0-0---8-0-8-0-8-7-4-0---0-----0----0---------||

||----------------------------||
||----------------------------||
||----------------------------||
||-4----------3----------5~---||
||-2----------1---4---1--3~---||
||----------------4---1-------||

||-----------------------------------------------||
||-----------------------------------------------||
||-4----4-----3----------3-----3-----2---2---2---||
||----------------4------------------------------||
||--2-2---2-2---2---2-5----1-1---1-1---1---1-----||
||-----------------------------------------------||          

||-----------------------------------------------||
||-----------------------------------------------||
||-7----7-----6----------------------------------||
||----------------7------8-----8-----8---7---11--||
||--5-5---5-5---5---5-8--------------------------||
||-------------------------8-8---8-8---8---8-----||          

||-----------------------------------------------||
||-----------------------------------------------||
||-7----7-----6----------6-----6-----5---5---5---||
||----------------7------------------------------||
||--5-5---5-5---5---5-8----4-4---4-4---4---4-----||
||-----------------------------------------------||          

||-----------------------------------------------||
||-----------------------------------------------||
||-4----4-----3----------------------------------||
||----------------4------5-----5-----5---4---8---||
||--2-2---2-2---2---2-5--------------------------||
||-------------------------5-5---5-5---5---5-----||          

||-----------------------------------------------||
||-----------------------------------------------||
||-4----4-----3----------3-----3-----2---2---2---||
||----------------4------------------------------||
||--2-2---2-2---2---2-5----1-1---1-1---1---1-----||
||-----------------------------------------------||          

||-----------------------------------------------||
||-----------------------------------------------||
||-7----7-----6----------------------------------||
||----------------7------8-----8-----8---7---11--||
||--5-5---5-5---5---5-8--------------------------||
||-------------------------8-8---8-8---8---8-----||          

||---------------------------------------||
||---------------------------------------||
||-7----7-----6--------------------------||
||----------------7------5-----4---------||
||--5-5---5-5---5---5-8--3-5-2-2-4-1-2---||
||-------------------------5-2---4-1-2---||          



            
            
Suggest correction
Creating personal tab
Creating personal tab
You can edit any tab online and save it as your Personal.

You can edit, replace or remove any tab part or add personal notes – all changes will be seen only by you.

Personal tabs can be accessed anytime from any device, even offline.
Learn more »
Give kudos to tab author, rate the tab!
1 2 3 4 5
comments
print report bad tab
guest
You may want to rate the tab now too:
select rating
Wanna post a correction for this tab? Suggest correction