Oops, an error
Loading. Please wait.

Day In Black tab

version 5
version 5

Whole song

Interactive

754 views 1 this week
1 commentread comment
1 2 3 4 5
3 more votes to show rating
add to favorites
×
Save as Personal and add changes to this tab that will be seen only by you. Learn more ›
×
You can save this tab as Personal to edit and correct it or add notes. All changes will be seen only by you. Learn more »
launch autoscroll
font size
0
reset
how to read this tab
guitar tuner
edit
Autoscroll
slow
fast
+/-
esc
set tempo
stop
Artist:Job For A Cowboy
Song:Day in Black
Drop C

-------------------------------------------------------------  |----------|
-------------------------------------------------------------  |----------|
-------------------------------------------------------------  |----------|
-------------------------------------------------------------  |----------|
-8-7-8-10-8-7-8-7-5-7-5-4----8-7-8-10-8-7-12-10-8-10-8-7-----X2|-----0----|
-------------------------------------------------------------  |-----0----|
                                                                on last one

---------------------------------------------------------------------|
---------------------------------------------------------------------|
---------------------------------------------------------------------|
---------------------------------------------------8'------7'--------|
----------------------------------------------5'------4'-------------|
-00000000-0-0-0-000000000---00000000-0-0-0---------------------------|
 ........ . . . .........   ........ . . .
GUITARS 1&2
-------------------------------------------------------------|
-------------------------------------------------------------|
-------------------------------------------------------------|
-------------------------------------------------------------|
-------------------------------------------------------------|
-00000000-0-0-0-000000000---00000000-0-0-0-000000000---------|x4
 ........ . . . .........   ........ . . . .........

-------------------------------------------------------------------------|
-------------------------------------------------------------------------|
-------------------------------------------------------------------------|
-------------------------------------------------------------------------|
---5-7-8-7-5------5-7-8-10-8-7-8---5-7-8-7-5-----------------------------|
--0----------000-----------------0-----------00---88888888--55555555-----|X4
  .          ...                 .           ..
-------------------------------------------------|
-------------------------------------------------|
-------------------------------------------------|
----7--5----8-7-5-7----7--5-----88-5--77-3-------|
-------------------------------------------------|
-0--------0----------0-------0-------------------|X2
 .        .          .       .

--------------------------------------------------------------|
--------------------------------------------------------------|
--------------------------------------------------------------|
--------------------------------------------------------------|
-5-5-5--5-7-8-8-8-8--10-8-7-8-8-8-8--------888-----777--------|
--0-0-0--------0-0-0---------0-0-0-0---000-----000------------|X3
  . . .        . . .         . . . .   ...     ...

----------------------------------|
----------------------------------|
-----------------------------9'---|
----------------------------------|
-0--000-0--000-0--000-00----------|
-0--000-0--000-0--000-00----------|
     ...   ...    ... ..

-------------------------------------------------------------------|
-------------------------------------------------------------------|
-------------------------------------------------------------------|
--------------------------------------------------8'-----7'--------|
-000-00000000-000-00000000-000-00000000-------5'-----4'------------|
-000-00000000-000-00000000-000-00000000----------------------------|X4
 ... ........ ... ........ ... ........
---------------------------------------------------------------------|
---------------------------------------------------------------------|
---------------------------------------------------------------------|
---------------------------------------------------------------------|
-0-000-000-000-0-000-000-000-0-000-000-000-0-000-000-000------4------|
-0-000-000-000-0-000-000-000-0-000-000-000-0-000-000-000------2------|
 . ... ... ... . ... ... ... . ... ... ... . ... ... ...

i dont kno if this part is right i couldnt figure it out for some reason
----------------------------------|
----------------------------------|
----------------------------------|
--6/7\6---7/8\7---6/7\6---3-2-----|
4-------5-------4-------2---------|
----------------------------------|X4

---------------------------------------|
---------------------------------------|
---------------------------------------|
---------------------------------------|
-----5------5-8-7------5------8-7-5----|
0000---0000-------0000---0000----------|
....   ....       ....   ....

-------|-----------------------------------------------------------------|
-------|-----------------------------------------------------------------|
-------|-----------------------------------------------------------------|
-------|-----------------------------------------------------------------|
00-00--|--5-----4---------5-----4---------5-----4---------8-----4--------|
00-00--|----0-0---0-0-0-0---0-0---0-0-0-0---0-0---0-0-0-0---0-0----------|X1
.. ..       . .   . . . .   . .   . . . .   . .   . . . .   . .

-----------------------|
-----------------------|
-----------------------|
-----------------------|last one let last note ring
5-----4---7-7p5/4------|
--0-0---0--------------|X4
  . .   .

-------------------|
-------------------|
-------------------|
-------------------|
4-0-0-4-00-00------|
--0-0---00-00------|X8
  . .   .. ..

bass part

-------------------   -------------------|
-------------------   -------------------|
-------------------   -------------------|
-------------------   -------------------|
5"--4"--8"--7"-----X2 5"--4"--8"--7"-----|X2
-------------------   -------------------|
.   .   .   .


-------------|
-------------|
----------9'-|   pinch on 4th time
-------------|
00-0-00------|
00-0-00------|  X4
.. . ..

--------------------------------------------|
--------------------------------------------|
--------------------------------------------|
--------------------------------------------|
------5p4h5p4h5p4----4p3h4p3----3p2h3p2-----|
0-0-0-------------00---------00-------------|X4
. . .             ..         ..


----------------------------------------------|
----------------------------------------------|
----------------------------------------------|
--------------------------------------8--7----|
------8"-5"-------7"-4"-------8"-5"-----------|
0-0-0-------0-0-0-------0-0-0-------00-00-----|X2
. . .       . . .       . . .       .. ..

----------------------------|
----------------------------|
----------------------------|
------------------8"---7"---|
0-0-0-00000000-5"---4"------|
0-0-0-00000000--------------|X4
. . . ........

----------------------------------------------------------|
----------------------------------------------------------|
----------------------------------------------------------|
----------------------------------------------------------|
0-00---000-5p4h5p4h5p4h5p4-0-00---000-4p3h4p3h4p3h4p3-----|
0-00---000-----------------0-00---000---------------------|X2
. ..   ...                 . ..   ...

--------------------------------------------------------------------|
--------------------------------------------------------------------|
--------------------------------------------------------------------|
-2---6---1------2---6---8------2-----6-----1------2-----6-----8~----|
-4---8---3------4---8---10-----4-000-8-000-3------4-000-8-000-10~---|
---------------------------------000---000----------000---000-------|
                                 ...   ...          ...   ...

----------------------------------------------------------------------|
----------------------------------------------------------------------|
----------------------------------------------------------------------|
----------------------------------------------------------------------|
-4-0-0-0-0-5-7-8-7-5/4-0-0-0-0-5-7-8-7-5/2-0-0-2-4-0-0-4/8-7-5-4~-----|
---0-0-0-0-------------0-0-0-0-------------0-0-----0-0----------------|X2
   . . . .             . . . .             . .     . .

---------------------------------------|
---------------------------------------|
---------------------------------------|
---------------------------------------|
00-00-00-00-00-00-00-00-00-00-00-00----|
00-00-00-00-00-00-00-00-00-00-00-00----|X2
.. .. .. .. .. .. .. .. .. .. .. ..

------------------|
------------------|
------------------|
------------------|
--8-10-7-8-5-7-4--|
------------------|X4

--------------------------------|
--------------------------------|
--------------------------------|
--------------------------------|
000-000-0-0-0-000-000-0-0-0-----|
000-000-0-0-0-000-000-0-0-0-----|X8
... ... . . . ... ... . . .

------------------|
------------------|
------------------|
------------------|
--8-10-7-8-5-7-4--|
------------------|X4

--------------------------------|
--------------------------------|
--------------------------------|
--------------------------------|
000-000-0-0-0-000-000-0-0-0-----|
000-000-0-0-0-000-000-0-0-0-----|X2
... ... . . . ... ... . . .


------------------|
------------------|
------------------|
------------------|
---10--8--4--5~---|
------------------|

            
            
Suggest correction
Creating personal tab
Creating personal tab
You can edit any tab online and save it as your Personal.

You can edit, replace or remove any tab part or add personal notes – all changes will be seen only by you.

Personal tabs can be accessed anytime from any device, even offline.
Learn more »
Give kudos to tab author, rate the tab!
1 2 3 4 5
comments
print report bad tab
1 comment total.
0 reply
666SICKO666 10 Jan 29, 2014 11:09 AM

I know how to play the riff you can't figure out, don't know if anyone else has got it. It plays once on the 5th string and twice on the 4th. Goes something as such: 5,33. 7,55. 8,77. 10,88.....hope you understand, if not, shame.

guest
Wanna post a correction for this tab? Suggest correction