Oops, an error
Loading. Please wait.

Entombment Of A Machine Tab

version 1
version 1

Whole song

Interactive

103,798 views 39 this week
25 commentsread comments
1 2 3 4 5
x 43
add to favorites
launch autoscroll
font size
0
reset
how to read this tab
guitar tuner
×
Best way to learn
"Entombment Of A Machine"
Autoscroll
slow
fast
+/-
esc
set tempo
stop
Difficulty
Tuning
intermediate
C G C F A D
Drop-C (CGCFAD)

To clear up any issues on their tuning:
On DOOM, Job For A Cowboy tuned to Drop-C.
To record Entities, and their entire new demo for that matter, they downtuned their 
to Drop A#, and now play all of their songs in that tuning, including at their live shows.

[Intro Riff] This is pretty hard to make out, but if you listen really really close you 
 hear it. It's all just trem picked. Both guitars play this, by the way.
D|---------------------------|
A|---------------------------|
F|---------------------------|
C|---------------------------|
G|--------------------3-4----|
C|1-1-4-4-1-1-3-3-0-0-----0-0|

 (0:07)
 Guitar One-
D|----------------|
A|----------------|
F|----------------|
C|----------------|
G|--------------2*|
C|0-4-3-4-4-3-4---|
  . . . . . . .

 Guitar Two-
D|----------------|
A|----------------|
F|----------------|
C|----------------|
G|--------------5*|
C|4-7-6-7-7-6-7---|
  . . . . . . .

 (0:14)
 Both Guitars
D|-----------|
A|-----------|
F|-----------|
C|0---0-4-3-1|
G|0---0-4-3-1|
C|0---0-4-3-1|
  .   . . . .

 (0:21)
 Guitar One-
D|---------------|
A|---------------|
F|---------------|
C|---------------|
G|---------------|
C|4-1-3-0-4-1-3-0|
  . . . . . . . .

 Guitar Two-
D|---------------|
A|---------------|
F|---------------|
C|---------------|
G|---------------|
C|7-4-6-3-7-4-6-3|
  . . . . . . . .

 (0:23)
 Both guitars, trem picked.
D|----------------------|
A|----------------------|
F|----------------------|
C|----------------------|
G|---------------------0|
C|444444-111111-333333-0|

That sick scream comes next.

 (0:26)
 Both guitars, trem pick each note as fast as you can.
D|------------------------------------|
A|------------------------------------|
F|------------------------------------|
C|------------------------------------|
G|------------------------------------|
C|44444444-11111111-33333333-00000000-|

 (0:40)
 Guitar One-
D|----------|
A|----------|
F|----------|
C|4--1--3--0|
G|4--1--3--0|
C|4--1--3--0|

 Guitar Two goes back to this riff from earlier-
D|-----------|
A|-----------|
F|-----------|
C|0---0-4-3-1|
G|0---0-4-3-1|
C|0---0-4-3-1|
  .   . . . .

 (0:45)
 Guitar One-
D|-------|
A|-------|
F|-------|
C|-------|
G|-----4*|
C|000----|
  ...

 Guitar Two-
D|-------|
A|-------|
F|-------|
C|-------|
G|-----1*|
C|000----|
  ...

 (0:46)
 Both Guitars
D|-----------|
A|-----------|
F|-----------|
C|0---0-4-3-1|
G|0---0-4-3-1|
C|0---0-4-3-1|
  .   . . . .

At 0:53, go back to the riff at 0:40.

 (0:59)
 Both Guitars-
D|---------------------------|
A|---------------------------|
F|---------------------------|
C|---------------------------|
G|0-4-3-1----0-4-3-1--000-000|
C|0-4-3-1----0-4-3-1--000-000|
  . . . .    . . . .  ... ...

 (1:13)
 Both Guitars-
 Trem Pick every single note.
D|---------------------------------|
A|---------------------------------|
F|---------------------------------|
C|---------------------------------|
G|------5-----------------4--------|
C|5-7-8---8-7-5-7---4-6-7---7-6-4-6|

 (1:22)
 Let each note ring out.
 Guitar One-
D|------|
A|------|
F|------|
C|-----0|
G|-----0|
C|1^---0|
       .

 Guitar Two-
D|------|
A|------|
F|------|
C|-----0|
G|-----0|
C|5^---0|
       .

 (1:35)
 Guitar One-
D|--------------------------------------------------|
A|--------------------------------------------------|
F|--------------------------------------------------|
C|--------------------------------------------------|
G|------5------------5------------4------------4----|
C|5-7-8---8-7--5-7-8---8-7--4-6-7---7-6--4-6-7---7-6|
  . . .   . .  . . .   . .  . . .   . .  . . .   . .

 Guitar Two-
D|------|
A|------|
F|------|
C|-----0|
G|-----0|
C|5^---0|
       .

 (1:47)
 Both Guitars-
D|--------------------------------------------------|
A|--------------------------------------------------|
F|--------------------------------------------------|
C|--------------------------------------------------|
G|------5------------5------------4----------4------|
C|5-7-8---8-7--5-7-8---8-7--4-6-7-----4-6-7---------|
  . . .   . .  . . .   . .  . . .     . . .

 (1:59)
 Both Guitars-
D|---------------------------------|
A|---------------------------------|
F|---------------------------------|
C|---------------------------------|
G|1-1-1-1-1-1-1-1-1-1-1-1-0000-0000|
C|1-1-1-1-1-1-1-1-1-1-1-1-0000-0000|
  . . . . . . . . . . . . .... ....

 (2:05)
 Guitar One-
D|---------------------------------|
A|---------------------------------|
F|---------------------------------|
C|---------------------------------|
G|1-1-1-1-1-1-1-1-1-1-1-1-0000-0000|
C|1-1-1-1-1-1-1-1-1-1-1-1-0000-0000|
  . . . . . . . . . . . . .... ....

 Guitar Two-
D|--------------------------|
A|--------------------------|
F|--------------------------|
C|--------------------------|
G|---5------5--------4-----4|
C|578-87-578-87---467---467-|
  ... .. ... ..   ...   ...

 (2:11)
 Guitar One-
D|----------------------------------------------|
A|----------------------------------------------|
F|----------------------------------------------|
C|---------------------------------------------0|
G|-----5------6---------------5------6---------0|
C|00000--00000--5-8-4-7--00000--00000---5---1--0|

 Guitar Two-
D|------------------------------------------------|
A|------------------------------------------------|
F|------------------------------------------------|
C|-----------------------------------------------0|
G|-----8------9-----------------8------9---------0|
C|00000--00000--8-11-7-10--00000--00000---5---1--0|

 (2:32)
 Guitar One-
D|----------------------------|
A|----------------------------|
F|----------------------------|
C|------------------------0000|
G|5---4h5p4---1h4p1---1h4-0000|
C|------------------------0000|
                          ....

 The second time through, the second guitar plays this harmony:
D|----------------------------|
A|----------------------------|
F|----------------------------|
C|------------------------0000|
G|8---7h8p7---4h7p4---4h7-0000|
C|------------------------0000|
                          ....

 (2:39)
 Both Guitars-
D|----------------------------|
A|----------------------------|
F|----------------------------|
C|------------------------0000|
G|------------------------0000|
C|5---4h5p4---1h4p1---1h4-0000|
                          ....

 The third and fourth time this riff is played, the second guitar plays this harmony:
D|----------------------------|
A|----------------------------|
F|----------------------------|
C|------------------------0000|
G|------------------------0000|
C|8---7h8p7---4h7p7---4h7-0000|
                          ....

 (2:52)
 Both Guitars-
D|----------------------------------------------------|
A|----------------------------------------------------|
F|----------------------------------------------------|
C|----------------------------------------------------|
G|0-0-1-000-4----0-1-0-4-4*----0-0-1-000-4----0-4-3-1-|
C|0-0-1-000-4----0-1-0-4-------0-0-1-000-4----0-4-3-1-|
  . .   ...      . . . .       . .   ...      . . . .

At 3:02, the riff above slows down, but it's still the same notes and rythym.

 At 3:08, play this twice instead of once.
D|-------|
A|-------|
F|-------|
C|-------|
G|0-4-3-1|
C|0-4-3-1|
  . . . .

 (3:12)
 Guitar One (for the rest of the song):
D|------------------------------------------------|
A|------------------------------------------------|
F|------------------------------------------------|
C|------------------------------------------------|
G|5-4-------5-4-------8-7------------8-7----------|
C|5-4-888---5-4-888---8-7-11-11-11---8-7-11-11-11-|
  . .       . .       . .            . .

Sometimes Guitar Two plays this in the background:
(All trem picked)
D|--------------------------------------|
A|--------------------------------------|
F|--------------------------------------|
C|4----------------------4--------------|
G|------5-----2-----------------5------1|
C|--------------------------------------|

 After the big slowdown part thingy at (3:43), Guitar Two's part switches to this:
D|--------------------------------------|
A|--------------------------------------|
F|--------------------------------------|
C|--------------------------------------|
G|5-4-444---5-4-444----8-7-777---8-7-777|
C|5-4-------5-4--------8-7-------8-7----|
  . .       . .        . .       . .

************************************

As usual,
. = palm muting
* = pinch harmonics
^ = bends
h  Hammer-on
p  Pull-off

************************************
Suggest correction
comments
print report bad tab
25 comments total. Showing first comments.
0 reply
EmoRocker19510 40 Jul 11, 2006 11:19 AM

Awesome tab, good job dude.

0 reply
laxcountry07 30 Aug 22, 2006 06:33 AM

^ yes

+1 reply
Zedzeppelin@1 10 Sep 19, 2006 03:35 PM

Good tab you sj\hould have made it shorter

guest
You may want to rate the tab now too:
select rating
Wanna post a correction for this tab? Suggest correction