Oops, an error
Loading. Please wait.

Entombment Of A Machine tab

version 2
version 2

Whole song

Interactive

15,433 views 3 this week
no commentswrite comment
1 2 3 4 5
x 5
add to favorites
×
Save as Personal and add changes to this tab that will be seen only by you. Learn more ›
×
You can save this tab as Personal to edit and correct it or add notes. All changes will be seen only by you. Learn more »
launch autoscroll
font size
0
reset
how to read this tab
guitar tuner
edit
Autoscroll
slow
fast
+/-
esc
set tempo
stop
#----------------------------------PLEASE NOTE---------------------------------#
#This file is the author's own work and represents their interpretation of the #
#song. You may only use this file for private study, scholarship, or research. #
#------------------------------------------------------------------------------#

ENTOMBMENT OF A MACHINE
As recorded by Job For A Cowboy
(From the 2005 EP DOOM)

Transcribed by jonathan rose
        

Words and Music by Job For A Cowboy

Gtr I (C G C F A D) - 'Left Channel'
Gtr II (C G C F A D) - 'Right Channel'

 "It breathes!"
  Deathcore Q=144
  N.C.
 4/4
  Gtrs I, II
  S S S S S S S S S S S S S S S S   S S S S S S S S S S S S S S S S
|---------------------------------|---------------------------------|
|---------------------------------|---------------------------------|
|---------------------------------|---------------------------------|
|---------------------------------|---------------------------------|
|---------------------3-3-4-4-----|---------------------3-3-4-4-----|
|-1-1-4-4-1-1-3-3-0-0---------0-0-|-1-1-4-4-1-1-3-3-0-0---------0-0-|


  S S S S S S S S S S S S S S S S   S S S S S S S S S S S S S S S S
|---------------------------------|----------------------------------||
|---------------------------------|----------------------------------||
|---------------------------------|----------------------------------||
|---------------------------------|----------------------------------||
|---------------------3-3-4-4-----|---------------------3-3-4-4------||
|-1-1-4-4-1-1-3-3-0-0---------0-0-|-1-1-4-4-1-1-3-3-0-0---------0-0--||


 "What stands before us.."
  N.C.
  Gtr I
  PM----------|       PM----------|
  E E E E E E E  E    E E E E E E E  E
|-------------------|-------------------|
|-------------------|-------------------|
|-------------------|-------------------|
|-------------------|-------------------|
|-------7-------[7]-|-------7-----------|
|-4-7-6---7-6-7-----|-4-7-6---7-6-7-[7]-|
|
| Gtr II
| PM----------|       PM----------|
| E E E E E E E  E    E E E E E E E  E
|-------------------|-------------------|
|-------------------|-------------------|
|-------------------|-------------------|
|-------------------|-------------------|
|-------4-----------|-------4-----------|
|-0-4-3---4-3-4-[7]-|-0-4-3---4-3-4-[7]-|


  PM----------|       PM----------|
  E E E E E E E  E    E E E E E E E  E
|-------------------|--------------------|
|-------------------|--------------------|
|-------------------|--------------------|
|-------------------|--------------------|
|-------7-----------|-------7------------|
|-4-7-6---7-6-7-[7]-|-4-7-6---7-6-7-[7]--|
|
| PM----------|       PM----------|
| E E E E E E E  E    E E E E E E E  E
|-------------------|--------------------|
|-------------------|--------------------|
|-------------------|--------------------|
|-------------------|--------------------|
|-------4-----------|-------4------------|
|-0-4-3---4-3-4-[7]-|-0-4-3---4-3-4-[5]--|


  D5       GbF5  Eb5           D5       GbF5  Eb5
  E H    E E E   E H..         E H    E E E   E H..
|--------------|-------------|--------------|----------|
|--------------|-------------|--------------|----------|
|--------------|-------------|--------------|----------|
|-0------0-4-3-|-1-----------|-0------0-4-3-|-1--------|
|-0------0-4-3-|-1-----------|-0------0-4-3-|-1--------|
|-0------0-4-3-|-1-----------|-0------0-4-3-|-1--------|
|
| PM------------------------------------------|
| E H    E E E   E H..         E H    E E E   E H..
|--------------|-------------|--------------|----------|
|--------------|-------------|--------------|----------|
|--------------|-------------|--------------|----------|
|--------------|-------------|--------------|----------|
|-0------0-4-3-|-1-----------|-0------0-4-3-|-1--------|
|-0------0-4-3-|-1-----------|-0------0-4-3-|-1--------|


                                                  AHHHHHHHHH
  N.C.
                                                  5/4
  PM------------|
  E E E E E E E E   S S S S S S S S S S S S E E    W        Q
|-----------------|-----------------------------||--------------||
|-----------------|-----------------------------||--------------||
|-----------------|-----------------------------||--------------||
|-----------------|-----------------------------||--------------||
|-----------------|-----------------------------||--------------||
|-7-4-6-3-7-4-6-3-|-4-4-4-4-1-1-1-1-3-3-3-3-0---||--------------||
|
| PM------------|
| E E E E E E E E   S S S S S S S S S S S S E E    W        Q
|-----------------|-----------------------------||--------------||
|-----------------|-----------------------------||--------------||
|-----------------|-----------------------------||--------------||
|-----------------|-----------------------------||--------------||
|-----------------|-----------------------------||--------------||
|-4-1-3-0-4-1-3-0-|-4-4-4-4-1-1-1-1-3-3-3-3-0---||--------------||


   Its body is covered.."
    N.C.
   4/4
    Gtrs I, II
    S S S S S S S S S S S S S S S S   S S S S S S S S S S S S S S S S
||----------------------------------|---------------------------------|
||o---------------------------------|---------------------------------|
||----------------------------------|---------------------------------|
||----------------------------------|---------------------------------|
||o---------------------------------|---------------------------------|
||--4-4-4-4-4-4-4-4-1-1-1-1-1-1-1-1-|-3-3-3-3-3-3-3-3-0-0-0-0-0-0-0-0-|


  S S S S S S S S S S S S S S S S   S S S S S S S S S S S S S S S S
|---------------------------------|----------------------------------||
|---------------------------------|---------------------------------o||
|---------------------------------|----------------------------------||
|---------------------------------|----------------------------------||
|---------------------------------|---------------------------------o||
|-4-4-4-4-4-4-4-4-1-1-1-1-1-1-1-1-|-3-3-3-3-3-3-3-3-0-0-0-0-0-0-0-0--||


  Gb5   Eb5       F5      D5     Gb5   Eb5       F5     D5    D
  Gtr I
  PM--------------------------------------------------------|
  E H     E E E   E H..          E H     E E E   E Q.   S S E  Q
|---------------|--------------|---------------|-------------------||
|---------------|--------------|---------------|-------------------||
|---------------|--------------|---------------|-------------------||
|---------------|--------------|---------------|-------------------||
|-0-------0-4-3-|-1------------|-0-------0-4-3-|-1------0-0-0-<5>--||
|-0-------0-4-3-|-1------------|-0-------0-4-3-|-1------0-0-0------||
|
| Gtr II
|                                                       PM--|
| H     H         H       H      H     H         H      S S E  Q
|---------------|--------------|---------------|-------------------||
|---------------|--------------|---------------|-------------------||
|---------------|--------------|---------------|-------------------||
|-4-----1-------|-3-------0----|-4-----1-------|-3-----------------||
|-4-----1-------|-3-------0----|-4-----1-------|-3------0-0-0-<5>--||
|-4-----1-------|-3-------0----|-4-----1-------|-3------0-0-0------||


 "Only murmers.."
  D5       GbF5  Eb5           D5       GbF5  Eb5
  PM--------------------------------------------|
  E H    E E E   E H..         E H    E E E   E H..
|--------------|-------------|--------------|----------------|
|--------------|-------------|--------------|----------------|
|--------------|-------------|--------------|----------------|
|--------------|-------------|--------------|----------------|
|-0------0-4-3-|-1-----------|-0------0-4-3-|-1--------------|
|-0------0-4-3-|-1-----------|-0------0-4-3-|-1--------------|
|
| PM--------------------------------------------|
| E H    E E E   E H..         E H    E E E   E Q.     H
|--------------|-------------|--------------|----------------|
|--------------|-------------|--------------|----------------|
|--------------|-------------|--------------|----------------|
|--------------|-------------|--------------|----------------|
|-0------0-4-3-|-1-----------|-0------0-4-3-|-1--------------|
|-0------0-4-3-|-1-----------|-0------0-4-3-|-1-------12\----|


  D5                  D5  Gb5 F5    Eb5
  PM-------------------------------------------------------------------
  E   H               E   E   E     E   H..
|---------------------------------|-----------------------------------|
|---------------------------------|-----------------------------------|
|---------------------------------|-----------------------------------|
|---------------------------------|-----------------------------------|
|-0-------------------0---4---3---|-1---------------------------------|
|-0-------------------0---4---3---|-1---------------------------------|
|
| S S S S S S S S S S S S S S S S   S S S   S S S S S S S S S S S S S
|---------------------------------|-----------------------------------|
|---------------------------------|-----------------------------------|
|---------------------------------|-----------------------------------|
|---------------------------------|-----------------------------------|
|---------------------------------|-----------------------------------|
|-4-4-4-4-4-4-4-4-1-1-1-1-1-1-1-1-|-3-3-3---3-3-3-3-3-0-0-0-0-0-0-0-0-|


  D5                  D5  Gb5 F5    Eb5              D5    D
 --------------------------------------------------------|
  E   H               E   E   E     E   Q.           S S E  Q
|---------------------------------|-----------------------------||
|---------------------------------|-----------------------------||
|---------------------------------|-----------------------------||
|---------------------------------|-----------------------------||
|-0-------------------0---4---3---|-1----------------0-0-0-<5>--||
|-0-------------------0---4---3---|-1----------------0-0-0------||
|
|                                                    PM--|
| S S S S S S S S S S S S S S S S   S S S  S S S S S S S E  Q
|---------------------------------|-----------------------------||
|---------------------------------|-----------------------------||
|---------------------------------|-----------------------------||
|---------------------------------|-----------------------------||
|---------------------------------|------------------0-0-0-<5>--||
|-4-4-4-4-4-4-4-4-1-1-1-1-1-1-1-1-|-3-3-3--3-3-3-3-3-0-0-0------||


   "But I rise.."
    D5GbF5Eb5      D5GbF5EbD5
    Gtrs I, II
    PM----|        PM--------------|   PM------|
    E E E E H      E E E E T T T T S S T T T T S S
||---------------|---------------------------------|
||o--------------|---------------------------------|
||---------------|---------------------------------|
||---------------|---------------------------------|
||o-0-4-3-1------|-0-4-3-1-0-0-0-0-0---0-0-0-0-0---|
||--0-4-3-1------|-0-4-3-1-0-0-0-0-0---0-0-0-0-0---|


  D5GbF5Eb5      D5GbF5EbD5
  PM----|        PM--------------|   PM------|
  E E E E H      E E E E T T T T S S T T T T S S
|--------------|------------------------------------||
|--------------|-----------------------------------o||
|--------------|------------------------------------||
|--------------|------------------------------------||
|-0-4-3-1------|-0-4-3-1-0-0-0-0-0---0-0-0-0-0-----o||
|-0-4-3-1------|-0-4-3-1-0-0-0-0-0---0-0-0-0-0------||


  N.C.
  S S S S S S S S S S S S S S S S   S S S S S S S S S S S S S S S S
|---------------------------------|---------------------------------|
|---------------------------------|---------------------------------|
|---------------------------------|---------------------------------|
|---------------------------------|---------------------------------|
|-------------5-5-----------------|-------------4-4-----------------|
|-5-5-7-7-8-8-----8-8-7-7-5-5-7-7-|-4-4-6-6-7-7-----7-7-6-6-4-4-6-6-|


  S S S S S S S S S S S S S S S S   S S S S S S S S S S S S S S E
|---------------------------------|----------------------------------||
|---------------------------------|----------------------------------||
|---------------------------------|----------------------------------||
|---------------------------------|----------------------------------||
|-------------5-5-----------------|-------------4-4------------------||
|-5-5-7-7-8-8-----8-8-7-7-5-5-7-7-|-4-4-6-6-7-7-----7-7-6-6-4-4-6----||


   "Entombment of a.."
    N.C.         D5         N.C.         D5
    Gtr I
                 PM                      PM
    W            W          W            W
||-------------|----------|------------|-------||
||o------------|----------|------------|------o||
||-------------|----------|------------|-------||
||-------------|----------|------------|-------||
||o------------|-0--------|------------|-0----o||
||--5b6--------|-0--------|-5b6--------|-0-----||
|
|   Gtr II
|                PM                      PM
|   W            W          W            W
||-------------|----------|------------|-------||
||o------------|----------|------------|------o||
||-------------|----------|------------|-------||
||-------------|----------|------------|-------||
||o------------|-0--------|------------|-0----o||
||--1b2--------|-0--------|-1b2--------|-0-----||


  N.C.                        D5
  |--3--| |-3-| |-3-| |-3-|   |-3-| |-3-| |-3-| |-3-|
  E   E E E E E E E E E E E   E E E E E E E E E E E E
|---------------------------|-------------------------|
|---------------------------|-------------------------|
|---------------------------|-------------------------|
|---------------------------|-------------------------|
|---------5-----------5-----|-------4-----------4-----|
|-5---7-8---8-7-5-7-8---8-7-|-4-6-7---7-6-4-6-7---7-6-|
|
|                             PM
| W                           W
|---------------------------|-------------------------|
|---------------------------|-------------------------|
|---------------------------|-------------------------|
|---------------------------|-------------------------|
|---------------------------|-0-----------------------|
|-1b2-----------------------|-0-----------------------|


  N.C.                        D5
  |--3--| |-3-| |-3-| |-3-|   |-3-| |-3-| |-3-| |-3-|
  E   E E E E E E E E E E E   E E E E E E E E E E E E
|---------------------------|----------------------------|
|---------------------------|----------------------------|
|---------------------------|----------------------------|
|---------------------------|----------------------------|
|---------5-----------5-----|-------4-----------4--------|
|-5---7-8---8-7-5-7-8---8-7-|-4-6-7---7-6-4-6-7---7-6----|
|
|                             PM
| W                           W
|---------------------------|----------------------------|
|---------------------------|----------------------------|
|---------------------------|----------------------------|
|---------------------------|----------------------------|
|---------------------------|-0--------------------------|
|-1b2-----------------------|-0--------------------------|


  N.C.                        D5
  |--3--| |-3-| |-3-| |-3-|   |-3-| |-3-| |-3-| |-3-|
  E   E E E E E E E E E E E   E E E E E E E E E E E E
|---------------------------|-------------------------|
|---------------------------|-------------------------|
|---------------------------|-------------------------|
|---------------------------|-------------------------|
|---------5-----------5-----|-------4-----------4-----|
|-5---7-8---8-7-5-7-8---8-7-|-4-6-7---7-6-4-6-7---7-6-|
|
|                             PM
| W                           W
|---------------------------|-------------------------|
|---------------------------|-------------------------|
|---------------------------|-------------------------|
|---------------------------|-------------------------|
|---------------------------|-0-----------------------|
|-1b2-----------------------|-0-----------------------|


                              H=H
  N.C.
  |--3--| |-3-| |-3-| |-3-|   |-3-|     |-3-|
  E   E E E E E E E E E E E   E E E E E E E E E E
|---------------------------|----------------------||
|---------------------------|----------------------||
|---------------------------|----------------------||
|---------------------------|----------------------||
|---------5-----------5-----|-------4---------4----||
|-5---7-8---8-7-5-7-8---8-7-|-4-6-7-----4-6-7------||
|
|                             |-3-|     |-3-|
| W                           E E E E E E E E E E
|---------------------------|----------------------||
|---------------------------|----------------------||
|---------------------------|----------------------||
|---------------------------|----------------------||
|---------------------------|-------4---------4----||
|-1b2-----------------------|-4-6-7-----4-6-7------||


   "With only delayed.."
    Faster Q=155
    N.C.
    Gtrs I, II
    |-3-| |-3-| |-3-| |-3-|   |-3-|     |-3-|
    E E E E E E E E E E E E   E E E E E E E E E E
||--------------------------|---------------------|
||o-------------------------|---------------------|
||--------------------------|---------------------|
||--------------------------|---------------------|
||o-------5-----------5-----|-------4---------4---|
||--5-7-8---8-7-5-7-8---8-7-|-4-6-7-----4-6-7-----|


  |-3-| |-3-| |-3-| |-3-|   |-3-|     |-3-|
  E E E E E E E E E E E E   E E E E E E E E E E
|-------------------------|------------------------||
|-------------------------|-----------------------o||
|-------------------------|------------------------||
|-------------------------|------------------------||
|-------5-----------5-----|-------4---------4-----o||
|-5-7-8---8-7-5-7-8---8-7-|-4-6-7-----4-6-7--------||


  Eb5                       D5
  PM----------------------------------------|
  |-3-| |-3-| |-3-| |-3-|   |-3-|     |-3-|
  E E E E E E E E E E E E   E E E E E E E E E E
|-------------------------|---------------------|
|-------------------------|---------------------|
|-------------------------|---------------------|
|-------------------------|---------------------|
|-1-1-1-1-1-1-1-1-1-1-1-1-|-0-0-0-0---0-0-0-0---|
|-1-1-1-1-1-1-1-1-1-1-1-1-|-0-0-0-0---0-0-0-0---|


  Eb5                       D5
  PM----------------------------------------|
  |-3-| |-3-| |-3-| |-3-|   |-3-|     |-3-|
  E E E E E E E E E E E E   E E E E E E E E E E
|-------------------------|------------------------|
|-------------------------|------------------------|
|-------------------------|------------------------|
|-------------------------|------------------------|
|-1-1-1-1-1-1-1-1-1-1-1-1-|-0-0-0-0---0-0-0-0------|
|-1-1-1-1-1-1-1-1-1-1-1-1-|-0-0-0-0---0-0-0-0------|


  Eb5                       D5
  Gtr I
  |-3-| |-3-| |-3-| |-3-|   |-3-|     |-3-|
  E E E E E E E E E E E E   E E E E E E E E E E
|-------------------------|---------------------|
|-------------------------|---------------------|
|-------------------------|---------------------|
|-------------------------|---------------------|
|-------5-----------5-----|-------4---------4---|
|-5-7-8---8-7-5-7-8---8-7-|-4-6-7-----4-6-7-----|
|
| Gtr II
| PM----------------------------------------|
| |-3-| |-3-| |-3-| |-3-|   |-3-|     |-3-|
| E E E E E E E E E E E E   E E E E E E E E E E
|-------------------------|---------------------|
|-------------------------|---------------------|
|-------------------------|---------------------|
|-------------------------|---------------------|
|-1-1-1-1-1-1-1-1-1-1-1-1-|-0-0-0-0---0-0-0-0---|
|-1-1-1-1-1-1-1-1-1-1-1-1-|-0-0-0-0---0-0-0-0---|


                            H=H
  Eb5                       N.C.
  |-3-| |-3-| |-3-| |-3-|          |-3-|
  E E E E E E E E E E E E   Q.   E E E E Q
|-------------------------|-----------------||
|-------------------------|-----------------||
|-------------------------|-----------------||
|-------------------------|-----------------||
|-------5-----------5-----|-----------------||
|-5-7-8---8-7-5-7-8---8-7-|-5----1-4-3-1-0--||
|
| PM--------------------|
| |-3-| |-3-| |-3-| |-3-|          |-3-|
| E E E E E E E E E E E E   Q.   E E E E Q
|-------------------------|-----------------||
|-------------------------|-----------------||
|-------------------------|-----------------||
|-------------------------|-----------------||
|-1-1-1-1-1-1-1-1-1-1-1-1-|-----------------||
|-1-1-1-1-1-1-1-1-1-1-1-1-|-8----4-7-6-4-0--||


   "What stands before us.."
    Faster Q=178
    D5        N.D5        N.C.
    PM------|   PM------|     TP  TP TP  TP
    S S S S E E S S S S E E   Q   Q  Q   Q
||--------------------------|---------------|
||o-------------------------|---------------|
||--------------------------|---------------|
||--------------------------|---------------|
||o-0-0-0-0-0-5-0-0-0-0-0-6-|---------------|
||--0-0-0-0-0---0-0-0-0-0---|-5---8--4---7--|
|
|   PM------|   PM------|     TP  TP TP  TP
|   S S S S E E S S S S E E   Q   Q  Q   Q
||--------------------------|---------------|
||o-------------------------|---------------|
||--------------------------|---------------|
||--------------------------|---------------|
||o-0-0-0-0-0-8-0-0-0-0-0-9-|---------------|
||--0-0-0-0-0---0-0-0-0-0---|-8--11--7--10--|


  D5        N.D5        N.C.
  PM------|   PM------|
                                   |-3-|
  S S S S E E S S S S E E   Q.   E E E E Q
|-------------------------|-------------------||
|-------------------------|------------------o||
|-------------------------|-------------------||
|-------------------------|-------------------||
|-0-0-0-0-0-5-0-0-0-0-0-6-|------------------o||
|-0-0-0-0-0---0-0-0-0-0---|-5----1-4-3-1-0----||
|
| PM------|   PM------|
|                                  |-3-|
| S S S S E E S S S S E E   Q.   E E E E Q
|-------------------------|-------------------||
|-------------------------|------------------o||
|-------------------------|-------------------||
|-------------------------|-------------------||
|-0-0-0-0-0-8-0-0-0-0-0-9-|------------------o||
|-0-0-0-0-0---0-0-0-0-0---|-8----4-7-6-4-0----||


    D5        N.D5        N.C.
    PM------|   PM------|     TP TP TP TP
    S S S S E E S S S S E E   Q  Q  Q  Q
||--------------------------|-------------|
||o-------------------------|-------------|
||--------------------------|-------------|
||--------------------------|-------------|
||o-0-0-0-0-0-5-0-0-0-0-0-6-|-------------|
||--0-0-0-0-0---0-0-0-0-0---|-5--8--4--7--|
|
|   PM------|   PM------|     TP TP TP TP
|   S S S S E E S S S S E E   Q  Q  Q  Q
||--------------------------|-------------|
||o-------------------------|-------------|
||--------------------------|-------------|
||--------------------------|-------------|
||o-0-0-0-0-0-5-0-0-0-0-0-6-|-------------|
||--0-0-0-0-0---0-0-0-0-0---|-5--8--4--7--|


  D5        N.D5        N.C.
  PM------|   PM------|
                                   |-3-|
  S S S S E E S S S S E E   Q.   E E E E Q
|-------------------------|-------------------||
|-------------------------|------------------o||
|-------------------------|-------------------||
|-------------------------|-------------------||
|-0-0-0-0-0-5-0-0-0-0-0-6-|------------------o||
|-0-0-0-0-0---0-0-0-0-0---|-5----1-4-3-1-0----||
|
| PM------|   PM------|
|                                  |-3-|
| S S S S E E S S S S E E   Q.   E E E E Q
|-------------------------|-------------------||
|-------------------------|------------------o||
|-------------------------|-------------------||
|-------------------------|-------------------||
|-0-0-0-0-0-5-0-0-0-0-0-6-|------------------o||
|-0-0-0-0-0---0-0-0-0-0---|-8----4-7-6-4-0----||


 "My legs weaken at.."
  Slower Q=155
  N.C.                         D5        N.C.                         D5
                               PM----|                                PM----|
  Q.   S S Q.   S S   Q.   S S E E E E   Q.   S S Q.   S S   Q.   S S E E E E
|-------------------|------------------|-------------------|------------------|
|-------------------|------------------|-------------------|------------------|
|-------------------|------------------|-------------------|------------------|
|-------------------|------------------|-------------------|------------------|
|-5----4h5p4----1h4p|=1----4p1-0-0-0-0-|-5----4h5p4----1h4p|=1----4p1-0-0-0-0-|
|-------------------|----------0-0-0-0-|-------------------|----------0-0-0-0-|
|
|                              PM----|                                PM----|
| Q.   S S Q.   S S   Q.   S S E E E E   Q.   S S Q.   S S   Q.   S S E E E E
|-------------------|------------------|-------------------|------------------|
|-------------------|------------------|-------------------|------------------|
|-------------------|------------------|-------------------|------------------|
|-------------------|------------------|-------------------|------------------|
|-5----4h5p4----1h4p|=1----4p1-0-0-0-0-|-8----7h8p7----4h7p|=4----7p4-0-0-0-0-|
|-------------------|----------0-0-0-0-|-------------------|----------0-0-0-0-|


  N.C.                         D5        N.C.                         D5
  Gtrs I, II
                               PM----|                                PM----|
  Q.   S S Q.   S S   Q.   S S E E E E   Q.   S S Q.   S S   Q.   S S E E E E
|-------------------|------------------|-------------------|------------------|
|-------------------|------------------|-------------------|------------------|
|-------------------|------------------|-------------------|------------------|
|-------------------|------------------|-------------------|------------------|
|-------------------|----------0-0-0-0-|-------------------|----------0-0-0-0-|
|-5----4h5p4----1h4p|=1----4p1-0-0-0-0-|-5----4h5p4----1h4p|=1----4p1-0-0-0-0-|


  N.C.                         D5        N.C.                         D5
  Gtr I
                               PM----|                                PM----|
  Q.   S S Q.   S S   Q.   S S E E E E   Q.   S S Q.   S S   Q.   S S E E E E
|-------------------|------------------|-------------------|------------------|
|-------------------|------------------|-------------------|------------------|
|-------------------|------------------|-------------------|------------------|
|-------------------|------------------|-------------------|------------------|
|-------------------|----------0-0-0-0-|-------------------|----------0-0-0-0-|
|-5----4h5p4----1h4p|=1----4p1-0-0-0-0-|-5----4h5p4----1h4p|=1----4p1-0-0-0-0-|
|
| Gtr II
|                              PM----|                                PM----|
| Q.   S S Q.   S S   Q.   S S E E E E   Q.   S S Q.   S S   Q.   S S E E E E
|-------------------|------------------|-------------------|------------------|
|-------------------|------------------|-------------------|------------------|
|-------------------|------------------|-------------------|------------------|
|-------------------|------------------|-------------------|------------------|
|-------------------|----------0-0-0-0-|-------------------|----------0-0-0-0-|
|-8----7h8p7----4h7p|=4----7p4-0-0-0-0-|-8----7h8p7----4h7p|=4----7p4-0-0-0-0-|


  N.C.
  PM----|   PM----|          PM  PM
  S S S S E S S S S E Q    E E E E E E  Q
|------------------------|------------------|
|------------------------|------------------|
|------------------------|------------------|
|------------------------|------------------|
|------------------------|-------------[3]--|
|-0-0-0-0-1-0-0-0-0-4----|---0-3-0-4--------|
|
| PM----|   PM----|          PM  PM
| S S S S E S S S S E Q    E E E E E E  Q
|------------------------|------------------|
|------------------------|------------------|
|------------------------|------------------|
|------------------------|------------------|
|------------------------|-------------[6]--|
|-0-0-0-0-4-0-0-0-0-7----|---0-6-0-7--------|


                           D5 Gb5F5 Eb5
  PM----|   PM----|        PM-------|
  S S S S E S S S S E Q    Q  Q  Q  Q
|------------------------|-------------||
|------------------------|-------------||
|------------------------|-------------||
|------------------------|-------------||
|------------------------|-0--4--3--1--||
|-0-0-0-0-1-0-0-0-0-4----|-0--4--3--1--||
|
| PM----|   PM----|        PM-------|
| S S S S E S S S S E Q    Q  Q  Q  Q
|------------------------|-------------||
|------------------------|-------------||
|------------------------|-------------||
|------------------------|-------------||
|------------------------|-0--4--3--1--||
|-0-0-0-0-4-0-0-0-0-7----|-0--4--3--1--||


 "Its body is covered.."
  N.C.
  PM----|   PM----|          PM  PM
  S S S S E S S S S E Q    E E E E E E  Q
|------------------------|------------------|
|------------------------|------------------|
|------------------------|------------------|
|------------------------|------------------|
|------------------------|-------------[3]--|
|-0-0-0-0-1-0-0-0-0-4----|---0-3-0-4--------|
|
| PM----|   PM----|          PM  PM
| S S S S E S S S S E Q    E E E E E E  Q
|------------------------|------------------|
|------------------------|------------------|
|------------------------|------------------|
|------------------------|------------------|
|------------------------|-------------[6]--|
|-0-0-0-0-4-0-0-0-0-7----|---0-6-0-7--------|


                           Slower Q=130
                           D5 Gb5F5 Eb5
  PM----|   PM----|        PM-------|
  S S S S E S S S S E Q    Q  Q  Q  Q
|------------------------|-------------|
|------------------------|-------------|
|------------------------|-------------|
|------------------------|-------------|
|------------------------|-0--4--3--1--|
|-0-0-0-0-1-0-0-0-0-4----|-0--4--3--1--|
|
| PM----|   PM----|        PM-------|
| S S S S E S S S S E Q    Q  Q  Q  Q
|------------------------|-------------|
|------------------------|-------------|
|------------------------|-------------|
|------------------------|-------------|
|------------------------|-0--4--3--1--|
|-0-0-0-0-4-0-0-0-0-7----|-0--4--3--1--|


  N.C.
  PM----|   PM----|          PM  PM
  S S S S E S S S S E Q    E E E E E E  Q
|------------------------|------------------|
|------------------------|------------------|
|------------------------|------------------|
|------------------------|------------------|
|------------------------|-------------[3]--|
|-0-0-0-0-1-0-0-0-0-4----|---0-3-0-4--------|
|
| PM----|   PM----|          PM  PM
| S S S S E S S S S E Q    E E E E E E  Q
|------------------------|------------------|
|------------------------|------------------|
|------------------------|------------------|
|------------------------|------------------|
|------------------------|-------------[6]--|
|-0-0-0-0-4-0-0-0-0-7----|---0-6-0-7--------|


                           D5 Gb5F5 Eb5  D5 Gb5F5 Eb5
  PM----|   PM----|        PM---------------------|
  S S S S E S S S S E Q    Q  Q  Q  Q    Q  Q  Q  Q
|------------------------|-------------|---------------|
|------------------------|-------------|---------------|
|------------------------|-------------|---------------|
|------------------------|-------------|---------------|
|------------------------|-0--4--3--1--|-0--4--3--1----|
|-0-0-0-0-1-0-0-0-0-4----|-0--4--3--1--|-0--4--3--1----|
|
| PM----|   PM----|        PM---------------------|
| S S S S E S S S S E Q    Q  Q  Q  Q    Q  Q  Q  Q
|------------------------|-------------|---------------|
|------------------------|-------------|---------------|
|------------------------|-------------|---------------|
|------------------------|-------------|---------------|
|------------------------|-0--4--3--1--|-0--4--3--1----|
|-0-0-0-0-4-0-0-0-0-7----|-0--4--3--1--|-0--4--3--1----|


  G5Gb5 G5Gb5      G5Gb5 G5Gb5      BbA5   BbA5        BbA5   BbA5
  PM|   PM|        PM|   PM|        PM|    PM|         PM|    PM|
  E E E E E E Q    E E E E E E Q    E E  E E E  E Q    E E  E E E  E Q
|----------------|----------------|------------------|-------------------||
|----------------|----------------|------------------|-------------------||
|----------------|----------------|------------------|-------------------||
|----------------|----------------|------------------|-------------------||
|-5-4---5-4------|-5-4---5-4------|-8-7----8-7-------|-8-7----8-7--------||
|-5-4-8-5-4-8----|-5-4-8-5-4-8----|-8-7-11-8-7-11----|-8-7-11-8-7-11-----||
|
| PM|   PM|        PM|   PM|        PM|    PM|         PM|    PM|
| E E E E E E Q    E E E E E E Q    E E  E E E  E Q    E E  E E E  E Q
|----------------|----------------|------------------|-------------------||
|----------------|----------------|------------------|-------------------||
|----------------|----------------|------------------|-------------------||
|----------------|----------------|------------------|-------------------||
|-5-4-4-5-4-4----|-5-4-4-5-4-4----|-8-7--7-8-7--7----|-8-7--7-8-7--7-----||
|-5-4---5-4------|-5-4---5-4------|-8-7----8-7-------|-8-7----8-7--------||


 "Entombment of a.."
  G5Gb5 G5Gb5      G5Gb5 G5Gb5
  PM|   PM|        PM|   PM|
  E E E E E E Q    E E E E E E Q
|----------------|----------------|
|----------------|----------------|
|----------------|----------------|
|----------------|----------------|
|-5-4---5-4------|-5-4---5-4------|
|-5-4-8-5-4-8----|-5-4-8-5-4-8----|
|
| TP      TP       TP
| H       H        W
|----------------|----------------|
|----------------|----------------|
|----------------|----------------|
|-3--------------|----------------|
|---------4------|-1--------------|
|----------------|----------------|


  BbA5   BbA5        Bb5A5   BbA5
                                        3/4
  PM|    PM|         PM-|    PM|
  E E  E E E  E Q    E  E  E E E  E Q    H.
|------------------|-------------------|-------||
|------------------|-------------------|-------||
|------------------|-------------------|-------||
|------------------|-------------------|-------||
|-8-7----8-7-------|-8--7----8-7-------|-------||
|-8-7-11-8-7-11----|-8--7-11-8-7-11----|-------||
|
| TP       TP        TP
| H        H         H.             Q    H.
|------------------|-------------------|-------||
|------------------|-------------------|-------||
|------------------|-------------------|-------||
|-3----------------|-------------------|-------||
|----------4-------|-0-----------------|-------||
|------------------|-------------------|-------||


 "I saw it die.."
  G5Gb5 G5Gb5      G5Gb5 G5Gb5      BbA5   BbA5        BbA5   BbA5
 4/4
  PM|   PM|        PM|   PM|        PM|    PM|         PM|    PM|
  E E E E E E Q    E E E E E E Q    E E  E E E  E Q    E E  E E E  E Q
|----------------|----------------|------------------|------------------|
|----------------|----------------|------------------|------------------|
|----------------|----------------|------------------|------------------|
|----------------|----------------|------------------|------------------|
|-5-4---5-4------|-5-4---5-4------|-8-7----8-7-------|-8-7----8-7-------|
|-5-4-8-5-4-8----|-5-4-8-5-4-8----|-8-7-11-8-7-11----|-8-7-11-8-7-11----|
|
| PM|   PM|        PM|   PM|        PM|    PM|         PM|    PM|
| E E E E E E Q    E E E E E E Q    E E  E E E  E Q    E E  E E E  E Q
|----------------|----------------|------------------|------------------|
|----------------|----------------|------------------|------------------|
|----------------|----------------|------------------|------------------|
|----------------|----------------|------------------|------------------|
|-5-4-4-5-4-4----|-5-4-4-5-4-4----|-8-7--7-8-7--7----|-8-7--7-8-7--7----|
|-5-4---5-4------|-5-4---5-4------|-8-7----8-7-------|-8-7----8-7-------|


  G5Gb5 G5Gb5      G5Gb5 G5Gb5
  PM|   PM|        PM|   PM|
  E E E E E E Q    E E E E E E Q
|----------------|----------------|
|----------------|----------------|
|----------------|----------------|
|----------------|----------------|
|-5-4---5-4------|-5-4---5-4------|
|-5-4-8-5-4-8----|-5-4-8-5-4-8----|
|
| TP      TP       TP
| H       H        W
|----------------|----------------|
|----------------|----------------|
|----------------|----------------|
|-3--------------|----------------|
|---------4------|-1--------------|
|----------------|----------------|


                                         H.=H
  BbA5   BbA5        Bb5A5   BbA5
                                        2/4
  PM|    PM|         PM-|    PM|
  E E  E E E  E Q    E  E  E E E  E Q    H
|------------------|-------------------|------|
|------------------|-------------------|------|
|------------------|-------------------|------|
|------------------|-------------------|------|
|-8-7----8-7-------|-8--7----8-7-------|------|
|-8-7-11-8-7-11----|-8--7-11-8-7-11----|------|
|
| TP       TP        TP
| H        H         H.             Q    H
|------------------|-------------------|------|
|------------------|-------------------|------|
|------------------|-------------------|------|
|-3----------------|-------------------|------|
|----------4-------|-0-----------------|------|
|------------------|-------------------|------|


  Slower Q=88
  G5Gb5 G5Gb5      G5Gb5 G5Gb5      BbA5   BbA5        BbA5   BbA5
 4/4
  Gtrs I, II
  PM|   PM|        PM|   PM|        PM|    PM|         PM|    PM|
  E E E E E E Q    E E E E E E Q    E E  E E E  E Q    E E  E E E  E Q
|----------------|----------------|------------------|------------------|
|----------------|----------------|------------------|------------------|
|----------------|----------------|------------------|------------------|
|----------------|----------------|------------------|------------------|
|-5-4---5-4------|-5-4---5-4------|-8-7----8-7-------|-8-7----8-7-------|
|-5-4-8-5-4-8----|-5-4-8-5-4-8----|-8-7-11-8-7-11----|-8-7-11-8-7-11----|


  G5Gb5 G5Gb5      G5Gb5 G5Gb5
  PM|   PM|        PM|   PM|
  E E E E E E Q    E E E E E E Q
|----------------|----------------|
|----------------|----------------|
|----------------|----------------|
|----------------|----------------|
|-5-4---5-4------|-5-4---5-4------|
|-5-4-8-5-4-8----|-5-4-8-5-4-8----|


  BbA5   BbA5        BbA5   BbA5
  PM|    PM|         PM|    PM|
  E E  E E E  E Q    E E  E E E  E Q    W
|------------------|------------------|------*|
|------------------|------------------|------*|
|------------------|------------------|------*|
|------------------|------------------|------*|
|-8-7----8-7-------|-8-7----8-7-------|------*|
|-8-7-11-8-7-11----|-8-7-11-8-7-11----|------*|



Duration Legend
---------------
W - whole; H - half; Q - quarter; E - 8th; S - 16th; T - 32nd; X - 64th; a - acciaccatura
+ - note tied to previous; . - note dotted; .. - note double dotted
Uncapitalized letters represent notes that are staccato (1/2 duration)
Irregular groupings are notated above the duration line
Duration letters will always appear directly above the note/fret number it represents the
duration for.  Duration letters with no fret number below them represent rests.  Multi-
bar rests are notated in the form Wxn, where n is the number of bars to rest for.  Low
melody durations appear below the staff

Tablature Legend
----------------
 h   - hammer-on
 p   - pull-off
 b   - bend
 pb  - pre-bend
 r   - bend release (if no number after the r, then release immediately)
 /\  - slide into or out of (from/to "nowhere")
 s   - legato slide
 S   - shift slide
 - natural harmonic
[n]  - artificial harmonic
n(n) - tapped harmonic
 ~   - vibrato
 tr  - trill
 T   - tap
 TP  - trem. picking
 PM  - palm muting
\n/  - tremolo bar dip; n = amount to dip
 \n  - tremolo bar down
 n/  - tremolo bar up
/n\  - tremolo bar inverted dip
 =   - hold bend; also acts as connecting device for hammers/pulls
 <> - volume swell (louder/softer)
 x   - on rhythm slash represents muted slash
 o   - on rhythm slash represents single note slash

Misc Legend
-----------
 |  - bar
||  - double bar
||o - repeat start
o|| - repeat end
*|  - double bar (ending)
 :  - bar (freetime)
 $  - Segno
 &  - Coda
Tempo markers -  = BPM(8/16=s8/s16), where s8 = swing 8ths, s16 = swing 16ths


** Generated using Power Tab Editor by Brad Larsen: The Official Power Tab Web Site

            
            
Suggest correction
Creating personal tab
Creating personal tab
You can edit any tab online and save it as your Personal.

You can edit, replace or remove any tab part or add personal notes – all changes will be seen only by you.

Personal tabs can be accessed anytime from any device, even offline.
Learn more »
comments
print report bad tab
guest
You may want to rate the tab now too:
select rating
Wanna post a correction for this tab? Suggest correction