Oops, an error
Loading. Please wait.

Knee Deep tab

version 3
version 3

Whole song

Interactive

12,133 views 3 this week
1 commentread comment
1 2 3 4 5
x 5
add to favorites
×
Save as Personal and add changes to this tab that will be seen only by you. Learn more ›
×
You can save this tab as Personal to edit and correct it or add notes. All changes will be seen only by you. Learn more »
launch autoscroll
font size
0
reset
how to read this tab
guitar tuner
edit
Autoscroll
slow
fast
+/-
esc
set tempo
stop
#----------------------------------PLEASE NOTE---------------------------------#
#This file is the author's own work and represents their interpretation of the #
#song. You may only use this file for private study, scholarship, or research. #
#------------------------------------------------------------------------------##

                                    KNEE DEEP
                         As recorded by Job For A Cowboy
                             (From the 2005 EP DOOM)

Words and Music by Job For A Cowboy
Transcribed by jonathan rose

Gtr I (C G C F A D) - 'Left'
Gtr II (C G C F A D) - 'Right'
Gtr III (C G C F A D) - 'Pickscrape'
Gtr IV (C G C F A D) - 'Heavy'

 Intro
  Q=118
  N.C.
 4/4
  Gtr I
  PM--|          PM--|         PM-----------------|         PM--|         PM-----------
  |-3-|          |-3-|         |-3-| |-3-|   |-3--|         |-3-|         |-3-| |-3-|
  S S S S  S S S S S S S S S S S S S S S S   S  S S S S S S S S S S S S S S S S S S S
|------------------------------------------|------------------------------------------|
|------------------------------------------|------------------------------------------|
|------------------------------------------|------------------------------------------|
|------------------------------------------|------------------------------------------|
|------------1h4-----------1h4-------------|------------1h4-----------1h4-------------|
|-0-0-0-1h=4-----0-0-0-1h4-----0-0-0-0-0-0-|-0--0-0-1h4-----0-0-0-1h4-----0-0-0-0-0-0-|
|
| Gtr II
| PM                                                                      PM-----------
|                                                                         |-3-| |-3-|
| E     H..                                  H.                           S S S S S S
|------------------------------------------|------------------------------------------|
|------------------------------------------|------------------------------------------|
|------------------------------------------|------------------------------------------|
|------------------------------------------|------------------------------------------|
|-0----------------------------------------|------------------------------0-0-0-0-0-0-|
|-0----------------------------------------|------------------------------0-0-0-0-0-0-|


 -----|         PM--|         PM----------------|         PM--|         PM
  |-3-|         |-3-|         |-3-| |-3-|   |-3-|         |-3-|
  S S S S S S S S S S S S S S S S S S S S   S S S S S S S S S S S S S S E E
|-----------------------------------------|------------------------------------||
|-----------------------------------------|------------------------------------||
|-----------------------------------------|------------------------------------||
|-----------------------------------------|------------------------------------||
|-----------1h4-----------1h4-------------|-----------1h4-----------1h4-0------||
|-0-0-0-1h4-----0-0-0-1h4-----0-0-0-0-0-0-|-0-0-0-1h4-----0-0-0-1h4-----0------||
|
|-|                           PM------------|                           PM
|                             |-3-| |-3-|
| E     H                 E   S S S S S S   E     H                 E   E E
|-----------------------------------------|------------------------------------||
|-----------------------------------------|------------------------------------||
|-----------------------------------------|------------------------------------||
|-----------------------------------------|------------------------------------||
|-0---------------------------0-0-0-0-0-0-|-0---------------------------0------||
|-0---------------------------0-0-0-0-0-0-|-0---------------------------0------||


 "His landscape has.."
  N.C.
  Gtrs I, II
  PM--|         PM--|         PM----------------|         PM--|         PM-----------
  |-3-|         |-3-|         |-3-| |-3-|   |-3-|         |-3-|         |-3-| |-3-|
  S S S S S S S S S S S S S S S S S S S S   S S S S S S S S S S S S S S S S S S S S
|-----------------------------------------|-----------------------------------------|
|-----------------------------------------|-----------------------------------------|
|-----------------------------------------|-----------------------------------------|
|-----------------------------------------|-----------------------------------------|
|-----------1h4-----------1h4-------------|-----------1h4-----------1h4-------------|
|-0-0-0-1h4-----0-0-0-1h4-----0-0-0-0-0-0-|-0-0-0-1h4-----0-0-0-1h4-----0-0-0-0-0-0-|


 -----|         PM--|         PM----------------|         PM--|         PM
  |-3-|         |-3-|         |-3-| |-3-|   |-3-|         |-3-|
  S S S S S S S S S S S S S S S S S S S S   S S S S S S S S S S S S S S E E
|-----------------------------------------|---------------------------------||
|-----------------------------------------|---------------------------------||
|-----------------------------------------|---------------------------------||
|-----------------------------------------|---------------------------------||
|-----------1h4-----------1h4-------------|-----------1h4-----------1h4-0---||
|-0-0-0-1h4-----0-0-0-1h4-----0-0-0-0-0-0-|-0-0-0-1h4-----0-0-0-1h4-----0---||


   "A decaying father.."
    D5
    Gtr I
    PM----------|   PM----------|   PM----|
    |-3-| |-3-|     |-3-| |-3-|     |-3-|
    S S S S S S S S S S S S S S S S S S S S S
||--------------------------------------------|
||o-------------------------------------------|
||--------------------------------------------|
||--------------------------------------------|
||o-0-0-0-0-0-0-0---0-0-0-0-0-0-0---0-0-0-0---|
||--0-0-0-0-0-0-0---0-0-0-0-0-0-0---0-0-0-0---|
|
|   Gtr II
|   PM----------|   PM----------|   PM----|
|   |-3-| |-3-|     |-3-| |-3-|     |-3-|
|   S S S S S S S S S S S S S S S S S S S S S
||--------------------------------------------|
||o-------------------------------------------|
||--------------------------------------------|
||--------------------------------------------|
||o-0-0-0-0-0-0-0---0-0-0-0-0-0-0---0-0-0-0---|
||--0-0-0-0-0-0-0---0-0-0-0-0-0-0---0-0-0-0---|


                        N.C.
  PM----------|   PM--|
  |-3-| |-3-|     |-3-|
  S S S S S S S S S S S  S  S  S  S  a  E  a  E
|-------------------------------------------------|
|-------------------------------------------------|
|-------------------------------------------------|
|-------------------------------------------------|
|-0-0-0-0-0-0-0---0-0-0-------12h15-15h17-15h17---|
|-0-0-0-0-0-0-0---0-0-0-12h15---------------------|
|
| PM----------|   PM--|
| |-3-| |-3-|     |-3-|
| S S S S S S S S S S S  S  S  S  S  a  E  a  E
|-------------------------------------------------|
|-------------------------------------------------|
|-------------------------------------------------|
|-------------------------------------------------|
|-0-0-0-0-0-0-0---0-0-0-------12h15-15h17-15h17---|
|-0-0-0-0-0-0-0---0-0-0-12h15---------------------|


  D5
  PM----------|   PM----------|   PM----|
  |-3-| |-3-|     |-3-| |-3-|     |-3-|
  S S S S S S S S S S S S S S S S S S S S S
|-------------------------------------------|
|-------------------------------------------|
|-------------------------------------------|
|-------------------------------------------|
|-0-0-0-0-0-0-0---0-0-0-0-0-0-0---0-0-0-0---|
|-0-0-0-0-0-0-0---0-0-0-0-0-0-0---0-0-0-0---|
|
| PM----------|   PM----------|   PM----|
| |-3-| |-3-|     |-3-| |-3-|     |-3-|
| S S S S S S S S S S S S S S S S S S S S S
|-------------------------------------------|
|-------------------------------------------|
|-------------------------------------------|
|-------------------------------------------|
|-0-0-0-0-0-0-0---0-0-0-0-0-0-0---0-0-0-0---|
|-0-0-0-0-0-0-0---0-0-0-0-0-0-0---0-0-0-0---|


                        N.C.
  PM----------|   PM--|
  |-3-| |-3-|     |-3-|
  S S S S S S S S S S S  S  S  S  S  a  E  a  E
|------------------------------------------------||
|-----------------------------------------------o||
|------------------------------------------------||
|-----------------------------------12h15-12h15--||
|-0-0-0-0-0-0-0---0-0-0-------12h15-------------o||
|-0-0-0-0-0-0-0---0-0-0-12h15--------------------||
|
| PM----------|   PM--|
| |-3-| |-3-|     |-3-|
| S S S S S S S S S S S  S  S  S  S  a  E  a  E
|------------------------------------------------||
|-----------------------------------------------o||
|------------------------------------------------||
|------------------------------------------------||
|-0-0-0-0-0-0-0---0-0-0-------12h15-15h17-15h17-o||
|-0-0-0-0-0-0-0---0-0-0-12h15--------------------||


  N.C.
  Gtrs I, II
  PM--|         PM--|         PM----------------|         PM--|         PM-----------
  |-3-|         |-3-|         |-3-| |-3-|   |-3-|         |-3-|         |-3-| |-3-|
  S S S S S S S S S S S S S S S S S S S S   S S S S S S S S S S S S S S S S S S S S
|-----------------------------------------|-----------------------------------------|
|-----------------------------------------|-----------------------------------------|
|-----------------------------------------|-----------------------------------------|
|-----------------------------------------|-----------------------------------------|
|-----------1h4-----------1h4-------------|-----------1h4-----------1h4-------------|
|-0-0-0-1h4-----0-0-0-1h4-----0-0-0-0-0-0-|-0-0-0-1h4-----0-0-0-1h4-----0-0-0-0-0-0-|


 -----|         PM--|         PM----------------|         PM--|         PM
  |-3-|         |-3-|         |-3-| |-3-|   |-3-|         |-3-|
  S S S S S S S S S S S S S S S S S S S S   S S S S S S S S S S S S S S E E
|-----------------------------------------|---------------------------------|
|-----------------------------------------|---------------------------------|
|-----------------------------------------|---------------------------------|
|-----------------------------------------|---------------------------------|
|-----------1h4-----------1h4-------------|-----------1h4-----------1h4-0---|
|-0-0-0-1h4-----0-0-0-1h4-----0-0-0-0-0-0-|-0-0-0-1h4-----0-0-0-1h4-----0---|


  D5              N.C.
 3/4           4/4
  Gtr I
  PM------------|
                  |--3--| |-3-| |-3-| |-3-| |-3-| |-3-| |-3-|
  E E E E E E   E S   S S S S S S S S S S S S S S S S S S S S
|-------------|-----------------------------------------------|
|-------------|-----------------------------------------------|
|-------------|-----------------------------------------------|
|-------------|-----------------------------------------------|
|-0---0-0-0-0-|-0-1---1-1-------------------------------------|
|-0---0-0-0-0-|-0---------4-4-4-1-1-1-0-0-0-4-4-4-7-7-7-3-3-3-|
|
| Gtr II
| PM------------|
| E E E E E E   E H..
|-------------|-----------------------------------------------|
|-------------|-----------------------------------------------|
|-------------|-----------------------------------------------|
|-------------|-----------------------------------------------|
|-0---0-0-0-0-|-0---------------------------------------------|
|-0---0-0-0-0-|-0---------------------------------------------|


  |-3-| |-3-| |-3-| |-3-| |---3---|
  S S S S S S S S S S S S S   S   S   S   S   S   S   S   S
|--------------------------------------------------------------||
|--------------------------------------------------------------||
|--------------------------------------------------------------||
|--------------------------------------------------------------||
|-------1-1-1-------------------------1h==4---1h==4---1h==4----||
|-0-0-0-------4-4-4-1-1-1-0---0---0----------------------------||
|
|                         Gtr III
|                         TPTP  TP  TPTPTPTPTPTPTPTPTPTPTPTPTP
| H                       T T   T   T T T T T T T T T T T T T
|--------------------------------------------------------------||
|--------------------------------------------------------------||
|--------------------------------------------------------------||
|--------------------------------------------------------------||
|-------------------------xSxS==xS==xSxSxSxSxSxSxSxSxSxSxSxSx\-||
|-------------------------xSxS==xS==xSxSxSxSxSxSxSxSxSxSxSxSx\-||


 "His hunger grows.."
  N.C.
  Gtrs I, II
  |-3-| |-3-| |-3-| |-3-| |-3-| |-3-| |-3-| |-3-|
  S S S S S S S S S S S S S S S S S S S S S S S S
|-------------------------------------------------|
|-------------------------------------------------|
|-------------------------------------------------|
|-------------------------------------------------|
|-------1-1-1-------------------------------------|
|-0-0-0-------4-4-4-1-1-1-0-0-0-4-4-4-7-7-7-3-3-3-|


                          PM--|     PM--|
  |-3-| |-3-| |-3-| |-3-| |-3-|     |-3-|
  S S S S S S S S S S S S S S S S S S S S S S
|---------------------------------------------|
|---------------------------------------------|
|---------------------------------------------|
|---------------------------------------------|
|-------1-1-1-------------------1h4-------1h4-|
|-0-0-0-------4-4-4-1-1-1-0-0-0-----0-0-0-----|


    N.C.
    Gtr I
    |-3-| |-3-| |-3-| |-3-| |-3-| |-3-| |-3-| |-3-|
    S S S S S S S S S S S S S S S S S S S S S S S S
||--------------------------------------------------|
||o-------------------------------------------------|
||--------------------------------------------------|
||--------------------------------------------------|
||o-------1-1-1-------------------------------------|
||--0-0-0-------4-4-4-1-1-1-0-0-0-4-4-4-7-7-7-3-3-3-|
|
|   Gtr II
|   |-3-| |-3-| |-3-| |-3-| |-3-| |-3-| |-3-| |-3-|
|   S S S S S S S S S S S S S S S S S S S S S S S S
||--------------------------------------------------|
||o-------------------------------------------------|
||--------------------------------------------------|
||--------------------------------------------------|
||o-------1-1-1-------------------------------------|
||--0-0-0-------4-4-4-1-1-1-0-0-0-4-4-4-7-7-7-3-3-3-|


                          PM--|     PM--|
  |-3-| |-3-| |-3-| |-3-| |-3-|     |-3-|
  S S S S S S S S S S S S S S S S S S S S S S
|------------------------------------------------||
|-----------------------------------------------o||
|------------------------------------------------||
|------------------------------------------------||
|-------1-1-1-------------------1h4-------4p1---o||
|-0-0-0-------4-4-4-1-1-1-0-0-0-----0-0-0--------||
|
|                         PM--|     PM--|
| |-3-| |-3-| |-3-| |-3-| |-3-|     |-3-|
| S S S S S S S S S S S S S S S S S S S S S S
|------------------------------------------------||
|-----------------------------------------------o||
|------------------------------------------------||
|------------------------------------------------||
|-------1-1-1-------------------1h4-------7p4---o||
|-0-0-0-------4-4-4-1-1-1-0-0-0-----0-0-0--------||


   "There is no end.."
    Q=75
    D5    BbF#EbD5    F#A5F5  D5    BbF#EbD5EbF#EbF5D5
    PM--|       PM--|         PM--|       PM--------|
    T T S E E E T T S E E E   T T S E E E S S S S S S  E
||--------------------------|-----------------------------|
||o-------------------------|-----------------------------|
||--------------------------|-----------------------------|
||--------3-----------------|-------3-----------------[4]-|
||o-0-0-0-1-4-1-0-0-0-4-7-3-|-0-0-0-1-4-1-0-1-4-1-3-0-----|
||--0-0-0---4-1-0-0-0-4-7-3-|-0-0-0---4-1-0-1-4-1-3-0-----|
|
|   PM--|       PM--|         PM--|       PM--------|
|   T T S E E E T T S E E E   T T S E E E S S S S S S  E
||--------------------------|-----------------------------|
||o-------------------------|-----------------------------|
||--------------------------|-----------------------------|
||--------3-----------------|-------3-----------------[1]-|
||o-0-0-0-1-4-1-0-0-0-4-7-3-|-0-0-0-1-4-1-0-1-4-1-3-0-----|
||--0-0-0---4-1-0-0-0-4-7-3-|-0-0-0---4-1-0-1-4-1-3-0-----|


  D5    BbF#EbD5    F#A5F5  D5    BbF#EbD5EbF#EbF5D5
  PM--|       PM--|         PM--|       PM--------|
  T T S E E E T T S E E E   T T S E E E S S S S S S T T T T
|-------------------------|------------------------------------||
|-------------------------|-----------------------------------o||
|-------------------------|------------------------------------||
|-------3-----------------|-------3----------------------------||
|-0-0-0-1-4-1-0-0-0-4-7-3-|-0-0-0-1-4-1-0-1-4-1-3-0-----1h4---o||
|-0-0-0---4-1-0-0-0-4-7-3-|-0-0-0---4-1-0-1-4-1-3-0-1h4--------||
|
| PM--|       PM--|         PM--|       PM--------|
| T T S E E E T T S E E E   T T S E E E S S S S S S T T T T
|-------------------------|------------------------------------||
|-------------------------|-----------------------------------o||
|-------------------------|------------------------------------||
|-------3-----------------|-------3----------------------------||
|-0-0-0-1-4-1-0-0-0-4-7-3-|-0-0-0-1-4-1-0-1-4-1-3-0-----1h4---o||
|-0-0-0---4-1-0-0-0-4-7-3-|-0-0-0---4-1-0-1-4-1-3-0-1h4--------||


  Q=118
  N.C.
  Gtrs I, II
  PM|   PM  PM|   PM  PM|   PM      PM|   PM  PM|   PM  PM|
  S S S S S S S S S S S S S S S S   S S S S S S S S S S S S S S S S
|---------------------------------|---------------------------------|
|---------------------------------|---------------------------------|
|---------------------------------|---------------------------------|
|---------------------------------|---------------------------------|
|-----1---1-----1---1-----1---1h4-|-----1---1-----1---1---------1h4-|
|-0-0---0---0-0---0---0-0---0-----|-0-0---0---0-0---0---0-0-1h4-----|


  PM|   PM  PM|   PM  PM|   PM      PM|   PM  PM|   PM  PM|
  S S S S S S S S S S S S S S S S   S S S S S S S S S S S S S S S S
|---------------------------------|------------------------------------|
|---------------------------------|------------------------------------|
|---------------------------------|------------------------------------|
|---------------------------------|------------------------------------|
|-----1---1-----1---1-----1---1h4-|-----1---1-----1---1---------1h4----|
|-0-0---0---0-0---0---0-0---0-----|-0-0---0---0-0---0---0-0-1h4--------|


 "He remains a walking.."
  N.C.
  Gtr I
  PM-|   PM  PM|   PM  PM|   PM       PM|   PM  PM|   PM  PM|
  S  S S S S S S S S S S S S S S  S   S S S S S S S S S S S S S S S S
|-----------------------------------|---------------------------------|
|-----------------------------------|---------------------------------|
|-----------------------------------|---------------------------------|
|-----------------------------------|---------------------------------|
|------4---4-----4---4-----4---4h=7-|-----4---4-----4---4---------4h7-|
|-0--0---0---0-0---0---0-0---0------|-0-0---0---0-0---0---0-0-4h7-----|
|
| Gtr II
|                                     PM|   PM  PM|   PM  PM|
| H.                       E.     S   S S S S S S S S S S S S S S S S
|-----------------------------------|---------------------------------|
|-----------------------------------|---------------------------------|
|-----------------------------------|---------------------------------|
|-----------------------------------|---------------------------------|
|-----------------------------------|-----4---4-----4---4---------4h7-|
|--------------------------1s====11-|-0-0---0---0-0---0---0-0-4h7-----|


                                    D5  N.C.
  PM|   PM  PM|   PM  PM|   PM      PM
  S S S S S S S S S S S S S S S S   S S S S S S E S S S S S S S S
|---------------------------------|----------------------------------|
|---------------------------------|----------------------------------|
|---------------------------------|----------------------------------|
|---------------------------------|----------------------------------|
|-----4---4-----4---4-----4---4h7-|-0-0-----7p4-------5h8-----7p4----|
|-0-0---0---0-0---0---0-0---0-----|-0-0-4h7-------5h8-----4h7--------|
|
| PM|   PM  PM|   PM  PM|   PM      PM
| S S S S S S S S S S S S S S S S   S S S S S S E S S S S S S S S
|---------------------------------|----------------------------------|
|---------------------------------|----------------------------------|
|---------------------------------|----------------------------------|
|---------------------------------|----------------------------------|
|-----4---4-----4---4-----4---4h7-|-0-0-----7p4-------5h8-----7p4----|
|-0-0---0---0-0---0---0-0---0-----|-0-0-4h7-------5h8-----4h7--------|


  N.C.
  PM|   PM  PM|   PM  PM|   PM       PM|   PM  PM|   PM  PM|
  S S S S S S S S S S S S S S S  S   S S S S S S S S S S S S S  S S  S
|----------------------------------|-----------------------------------|
|----------------------------------|-----------------------------------|
|----------------------------------|-----------------------------------|
|----------------------------------|-----------------------------------|
|-----4---4-----4---4-----4---4h=7-|-----4---4-----4---4----------4h=7-|
|-0-0---0---0-0---0---0-0---0------|-0-0---0---0-0---0---0-0-4h=7------|
|
| PM|   PM  PM|   PM  PM|   PM       PM    PM  PM|   PM  PM|
| S S S S S S S S S S S S S S S  S   S S S S S S S S S S S S S  S S  S
|----------------------------------|-----------------------------------|
|----------------------------------|-----------------------------------|
|----------------------------------|-----------------------------------|
|----------------------------------|-----------------------------------|
|-----7---7-----7---7-----7---7h10-|-----7---7-----7---7----------7h10-|
|-0-0---0---0-0---0---0-0---0------|-0-0---0---0-0---0---0-0-7h10------|


                                     D5  N.C.
  PM|   PM  PM|   PM  PM|   PM       PM
  S S S S S S S S S S S S S S S  S   S S S  S  S S E S  S S  S S  S  S S
|----------------------------------|----------------------------------------|
|----------------------------------|----------------------------------------|
|----------------------------------|----------------------------------------|
|----------------------------------|----------------------------------------|
|-----4---4-----4---4-----4---4h=7-|-0-0-------7p4--------5h=8-------7p4----|
|-0-0---0---0-0---0---0-0---0------|-0-0-4h=7--------5h=8------4h=7---------|
|
| PM|   PM  PM|   PM  PM|   PM       PM
| S S S S S S S S S S S S S S S  S   S S S  S  S S E S  S S  S S  S  S S
|----------------------------------|----------------------------------------|
|----------------------------------|----------------------------------------|
|----------------------------------|----------------------------------------|
|----------------------------------|----------------------------------------|
|-----7---7-----7---7-----7---7h10-|-0-0------10p7--------8h11------10p7----|
|-0-0---0---0-0---0---0-0---0------|-0-0-7h10--------8h11------7h10---------|


  D5  N.C.                        D5  N.C.
  PM                              PM
  S S S S S S E S S S S S S S S   S S S S S S E S S S S S S S S
|-------------------------------|-------------------------------|
|-------------------------------|-------------------------------|
|-------------------------------|-------------------------------|
|-------------------------------|-------------------------------|
|-0-0-----7p4-------5h8-----7p4-|-0-0-----7p4-------5h8-----7p4-|
|-0-0-4h7-------5h8-----4h7-----|-0-0-4h7-------5h8-----4h7-----|
|
| PM                              PM
| S S S S S S E S S S S S S S S   S S S S S S E S S S S S S S S
|-------------------------------|-------------------------------|
|-------------------------------|-------------------------------|
|-------------------------------|-------------------------------|
|-------------------------------|-------------------------------|
|-0-0-----7p4-------5h8-----7p4-|-0-0-----7p4-------5h8-----7p4-|
|-0-0-4h7-------5h8-----4h7-----|-0-0-4h7-------5h8-----4h7-----|


  H=H           Faster Q=145
  D5  N.C.
                                    2/4
  PM
  S S S S S S E S S S  S S  S S  S   S  S S  S E +E
|----------------------------------|---------------------||
|----------------------------------|---------------------||
|----------------------------------|---------------------||
|----------------------------------|---------------------||
|-0-0-----7p4-------5---------7----|------8--------------||
|-0-0-4h7-------5h8----8-7h10---10-|-8h11---11-8-(8)\----||
|
| PM            PM
| S S S S S S E E   Q.               H
|----------------------------------|---------------------||
|----------------------------------|---------------------||
|----------------------------------|---------------------||
|----------------------------------|---------------------||
|-0-0-----7p4---0------------------|---------------------||
|-0-0-4h7-------0------------------|---------------------||


 B r e a k d o w n!
  D5
 4/4
  Gtr I
  PM--|   PM--|   PM-------------------------|   PM--------|   PM--|   PM-----
  T T S S T T S S T T S H        T T S S T T S S T T S T T S S T T S S T T S
|----------------------------||----------------------------------------------|
|----------------------------||o---------------------------------------------|
|----------------------------||----------------------------------------------|
|----------------------------||----------------------------------------------|
|-0-0-0---0-0-0---0-0-0------||o-0-0-0---0-0-0---0-0-0-0-0-0---0-0-0---0-0-0-|
|-0-0-0---0-0-0---0-0-0------||--0-0-0---0-0-0---0-0-0-0-0-0---0-0-0---0-0-0-|
|
| Gtr II
| PM--|   PM--|   PM-------------------------|   PM--------|   PM--|   PM-----
| T T S S T T S S T T S H        T T S S T T S S T T S T T S S T T S S T T S
|----------------------------||----------------------------------------------|
|----------------------------||o---------------------------------------------|
|----------------------------||----------------------------------------------|
|----------------------------||----------------------------------------------|
|-0-0-0---0-0-0---0-0-0------||o-0-0-0---0-0-0---0-0-0-0-0-0---0-0-0---0-0-0-|
|-0-0-0---0-0-0---0-0-0------||--0-0-0---0-0-0---0-0-0-0-0-0---0-0-0---0-0-0-|


                        N.C.
 -----|   PM--|   PM--|
  T T S S T T S S T T S S   S S S   S  S S    S   3x
|-------------------------------------------------||
|------------------------------------------------o||
|-------------------------------------------------||
|-------------------------------------------------||
|-0-0-0---0-0-0---0-0-0-------5----------7h==10--o||
|-0-0-0---0-0-0---0-0-0-5h==8---8---7h10----------||
|
|-------------|   PM--------|   PM--|    PM--|
| T T S S T T S S T T S T T S S T T S  S T T  S   3x
|-------------------------------------------------||
|------------------------------------------------o||
|-------------------------------------------------||
|-------------------------------------------------||
|-0-0-0---0-0-0---0-0-0-0-0-0---0-0-0----0-0--0--o||
|-0-0-0---0-0-0---0-0-0-0-0-0---0-0-0----0-0--0---||


  D5
  PM--|   PM--|   PM----------
  T T S S T T S S T T S H
|----------------------------|
|----------------------------|
|----------------------------|
|----------------------------|
|-0-0-0---0-0-0---0-0-0------|
|-0-0-0---0-0-0---0-0-0------|
|
| PM--|   PM--|   PM----------
| T T S S T T S S T T S H
|----------------------------|
|----------------------------|
|----------------------------|
|----------------------------|
|-0-0-0---0-0-0---0-0-0------|
|-0-0-0---0-0-0---0-0-0------|


                        N.C.
                                               2/4
 -----|   PM--|   PM--|
  T T S S T T S S T T S S  S S  S  S  S  S  S    S  S  S  S  Q
|---------------------------------------------|------------------||
|---------------------------------------------|------------------||
|---------------------------------------------|------------------||
|---------------------------------------------|------------------||
|-0-0-0---0-0-0---0-0-0------8----------10----|-------11---------||
|-0-0-0---0-0-0---0-0-0-8h11---11-10h13----13-|-11h14----14-11\--||
|
|-----|   PM--|   PM--|
| T T S S T T S S T T S S  S S  S  S  S  S  S    S  S  S  S  Q
|---------------------------------------------|------------------||
|---------------------------------------------|------------------||
|---------------------------------------------|------------------||
|---------------------------------------------|------------------||
|-0-0-0---0-0-0---0-0-0------5-----------7----|--------8---------||
|-0-0-0---0-0-0---0-0-0-5h=8----8--7h10----10-|--8h11----11--8\--||


    D5                              N.C.
   4/4
    PM----------------------------|
    S E S E E S E S E E   S E S E E S  S S  S S  S S  S
||----------------------|-------------------------------|
||o---------------------|-------------------------------|
||----------------------|-------------------------------|
||----------------------|-------------------------------|
||o-0-0-0-0-0-0-0-0-0-0-|-0-0-0-0-0------7---------8h11-|
||--0-0-0-0-0-0-0-0-0-0-|-0-0-0-0-0-7h10---10-8h11------|
|
|   PM----------------------------|
|   S E S E E S E S E E   S E S E E S  S S  S S  S S  S
||----------------------|-------------------------------|
||o---------------------|-------------------------------|
||----------------------|-------------------------------|
||----------------------|-------------------------------|
||o-0-0-0-0-0-0-0-0-0-0-|-0-0-0-0-0------4---------5h=8-|
||--0-0-0-0-0-0-0-0-0-0-|-0-0-0-0-0-4h=7----7-5h=8------|


  D5                    N.C.
  PM----------------|
  S E S E E S E S E E   S  S S  S  S  S  S  S  S  S  S  S  Q     4x
|---------------------|------------------------------------------||
|---------------------|-----------------------------------------o||
|---------------------|------------------------------------------||
|---------------------|------------------------------------------||
|-0-0-0-0-0-0-0-0-0-0-|------8----------10----------11----------o||
|-0-0-0-0-0-0-0-0-0-0-|-8h11---11-10h13----13-11h14----14-11\----||
|
| PM----------------|
| S E S E E S E S E E   S  S S  S  S  S  S  S  S  S  S  S  Q     4x
|---------------------|------------------------------------------||
|---------------------|-----------------------------------------o||
|---------------------|------------------------------------------||
|---------------------|------------------------------------------||
|-0-0-0-0-0-0-0-0-0-0-|------5-----------7-----------8----------o||
|-0-0-0-0-0-0-0-0-0-0-|-5h=8----8--7h10----10--8h11----11--8\----||


                                    "He stands knee deep.."
  N.C.
  E  E E  E E  E E  E   W            E  E E  E E  E E  E  8x
|---------------------|----------||-----------------------||
|---------------------|----------||o---------------------o||
|---------------------|----------||-----------------------||
|---------------------|----------||-----------------------||
|------8-11------9-12-|----------||o------8-11------9-12-o||
|-8-11------9-12------|----------||--8-11------9-12-------||
|
| E  E E  E E  E E  E   W            E  E E  E E  E E  E  8x
|---------------------|----------||-----------------------||
|---------------------|----------||o---------------------o||
|---------------------|----------||-----------------------||
|---------------------|----------||-----------------------||
|------4--7------5--8-|----------||o------4--7------5--8-o||
|-4--7------5--8------|----------||--4--7------5--8-------||


    D5
    PM----------|          PM------------|
    E Q   S S E Q.       E S S E E S S E E E
||---------------------|---------------------|
||o--------------------|---------------------|
||---------------------|---------------------|
||---------------------|---------------------|
||o-0-----0-0-0--------|---0-0-0---0-0-0-0---|
||--0-----0-0-0--------|---0-0-0---0-0-0-0---|
|
|   E E E E   E E  E E   E E   E E E   E E E
||---------------------|---------------------|
||o--------------------|---------------------|
||---------------------|---------------------|
||---------------------|---------------------|
||o-----4-7--------5-8-|-------4-7-------5-8-|
||--4-7-------5-8------|-4-7-------5---8-----|


  PM----------|          PM------------|
  E Q   S S E Q.       E S S E E S S E E E
|--------------------|------------------------||
|--------------------|-----------------------o||
|--------------------|------------------------||
|--------------------|------------------------||
|-0-----0-0-0--------|---0-0-0---0-0-0-0-----o||
|-0-----0-0-0--------|---0-0-0---0-0-0-0------||
|
| E E E E   E E  E E   E E   E E E   E E E
|--------------------|------------------------||
|--------------------|-----------------------o||
|--------------------|------------------------||
|--------------------|------------------------||
|-----4-7--------5-8-|-------4-7-------5-8---o||
|-4-7-------5-8------|-4-7-------5---8--------||


  D5
  Gtrs I, II
  PM---------|        PM------------|
  E Q  S S E Q.     E S S E E S S E E E   W
|-----------------|---------------------|------||
|-----------------|---------------------|------||
|-----------------|---------------------|------||
|-----------------|---------------------|------||
|-0----0-0-0------|---0-0-0---0-0-0-0---|------||
|-0----0-0-0------|---0-0-0---0-0-0-0---|------||


   bree bree!
    Q=210
    D5                      N.C.
    Gtr I
    PM------------------|
        |-3-| |-3-| |-3-|   |-3-| |-3-| |-3-| |-3-|
    E E E E E E E E E E E   E E E E E E E E E E E E
||------------------------|-------------------------|
||o-----------------------|-------------------------|
||------------------------|-------------------------|
||------------------------|-------------------------|
||o-0---0-0-0-0-0-0-0-0-0-|-------------------------|
||--0---0-0-0-0-0-0-0-0-0-|-1-1-1-4-4-4-7-7-7-3-3-3-|
|
|   Gtr II
|   PM------------------|
|       |-3-| |-3-| |-3-|   |-3-| |-3-| |-3-| |-3-|
|   E E E E E E E E E E E   E E E E E E E E E E E E
||------------------------|-------------------------|
||o-----------------------|-------------------------|
||------------------------|-------------------------|
||------------------------|-------------------------|
||o-0---0-0-0-0-0-0-0-0-0-|-------------------------|
||--0---0-0-0-0-0-0-0-0-0-|-1-1-1-4-4-4-7-7-7-3-3-3-|


  D5                      N.C.
  PM------------------|
      |-3-| |-3-| |-3-|   |-3-| |-3-| |-3-| |-3-|
  E E E E E E E E E E E   E E E E E E E E E E E E  4x
|-----------------------|--------------------------||
|-----------------------|-------------------------o||
|-----------------------|--------------------------||
|-----------------------|--------------------------||
|-0---0-0-0-0-0-0-0-0-0-|-------0-1h4-------0-1h4-o||
|-0---0-0-0-0-0-0-0-0-0-|-0-1h4-------0-1h4--------||
|
| PM------------------|
|     |-3-| |-3-| |-3-|   |-3-| |-3-| |-3-| |-3-|
| E E E E E E E E E E E   E E E E E E E E E E E E  4x
|-----------------------|--------------------------||
|-----------------------|-------------------------o||
|-----------------------|--------------------------||
|-----------------------|--------------------------||
|-0---0-0-0-0-0-0-0-0-0-|-------0-4h7-------0-4h7-o||
|-0---0-0-0-0-0-0-0-0-0-|-0-4h7-------0-4h7--------||


 "When buried.."
  Q=275
  D5    N.C.
  E   E E  E E E E E   E E E E E E E E   E E E E E E E E   E E E E E E E E
|--------------------|-----------------|-----------------|-----------------|
|--------------------|-----------------|-----------------|-----------------|
|--------------------|-----------------|-----------------|-----------------|
|--------------------|-----------------|-----------------|-----------------|
|------------5-------|---------5-------|---------4-------|---------4-------|
|-5---0-5--8---8-5-8-|-5-0-5-8---8-5-8-|-4-0-4-7---7-4-7-|-4-0-4-7---7-4-7-|
|
| PM--|
| S S E H.             W                 W                 W
|--------------------|-----------------|-----------------|-----------------|
|--------------------|-----------------|-----------------|-----------------|
|--------------------|-----------------|-----------------|-----------------|
|--------------------|-----------------|-----------------|-----------------|
|-0-0-0--------------|-----------------|-----------------|-----------------|
|-0-0-0--------------|-----------------|-----------------|-----------------|


    N.C.
    E E E E E E E E    E  E E E E E E E   E E E E E E E E   E E E E E E E E   3x
||------------------|-------------------|-----------------|-------------------||
||o-----------------|-------------------|-----------------|------------------o||
||------------------|-------------------|-----------------|-------------------||
||------------------|-------------------|-----------------|-------------------||
||o---------5-------|-----------5-------|---------4-------|---------4--------o||
||--5-0-5-8---8-5-8-|--5--0-5-8---8-5-8-|-4-0-4-7---7-4-7-|-4-0-4-7---7-4-7---||
|
|   TP                 TP                 TP                TP      TP
|   W                 +W                  W                 H       H         3x
||------------------|-------------------|-----------------|-------------------||
||o-----------------|-------------------|-----------------|------------------o||
||------------------|-------------------|-----------------|-------------------||
||------------------|-------------------|-----------------|-------------------||
||o-----------------|-------------------|-----------------|------------------o||
||--5---------------|-(5)---------------|-4---------------|-1-------4---------||


  N.C.
  E E E  E E  E E  E    E  E E  E E  E E  E
|--------------------|----------------------|
|--------------------|----------------------|
|--------------------|----------------------|
|--------------------|----------------------|
|----------8---------|------------8---------|
|-8-0-8-11---11-8-11-|--8--0-8-11---11-8-11-|
|
| TP                    TP
| W                    +W
|--------------------|----------------------|
|--------------------|----------------------|
|--------------------|----------------------|
|--------------------|----------------------|
|--------------------|----------------------|
|-5------------------|-(5)------------------|


  E E E  E E  E E  E   E E E  E E  E E  E
|--------------------|--------------------|
|--------------------|--------------------|
|--------------------|--------------------|
|--------------------|--------------------|
|----------7---------|----------7---------|
|-7-0-7-10---10-7-10-|-7-0-7-10---10-7-10-|
|
| TP                   TP       TP
| W                    H        H
|--------------------|--------------------|
|--------------------|--------------------|
|--------------------|--------------------|
|--------------------|--------------------|
|--------------------|--------------------|
|-4------------------|-1--------4---------|


  N.C.
  E E E  E E  E E  E    E  E E  E E  E E  E
|--------------------|----------------------|
|--------------------|----------------------|
|--------------------|----------------------|
|--------------------|----------------------|
|----------8---------|------------8---------|
|-8-0-8-11---11-8-11-|--8--0-8-11---11-8-11-|
|
| TP                    TP
| W                    +W
|--------------------|----------------------|
|--------------------|----------------------|
|--------------------|----------------------|
|--------------------|----------------------|
|--------------------|----------------------|
|-8------------------|-(8)------------------|


  E E E  E E  E E  E    E  E E  E  E   E E  E
|--------------------|------------------------||
|--------------------|------------------------||
|--------------------|------------------------||
|--------------------|------------------------||
|----------7---------|-------------7----------||
|-7-0-7-10---10-7-10-|--7--0-7-10-----10-7-10-||
|
| TP                    TP
| W                    +H          H
|--------------------|------------------------||
|--------------------|------------------------||
|--------------------|------------------------||
|--------------------|------------------------||
|--------------------|------------------------||
|-7------------------|-(7)--------13\---------||


   "Dear father.."
    N.C.
    Gtrs I, II
    E E E E E E E E   E E E E E Q.     E E E E E E E E   E E E E E Q.     4x
||------------------|----------------|-----------------|------------------||
||o-----------------|----------------|-----------------|-----------------o||
||------------------|----------------|-----------------|------------------||
||------------------|----------------|-----------------|------------------||
||o-----5-------5---|-----5----------|-----4-------4---|-----4-----------o||
||--5-8---8-5-8---8-|-5-8---8-5------|-4-7---7-4-7---7-|-4-7---7-4--------||


  Q=155
  D5
  PM------------------|     PM------------------|
  S S S S S S S S E E E E   S S S S S S S S E E E E
|-------------------------|-------------------------|
|-------------------------|-------------------------|
|-------------------------|-------------------------|
|-------------------------|-------------------------|
|-0-0-0-0-0-0-0-0-0---0---|-0-0-0-0-0-0-0-0-0---0---|
|-0-0-0-0-0-0-0-0-0---0---|-0-0-0-0-0-0-0-0-0---0---|


                                            N.C.
  PM------------------|     PM------------|
  S S S S S S S S E E E E   S S S S S S S S S S S S S S S S
|-------------------------|------------------------------------|
|-------------------------|------------------------------------|
|-------------------------|------------------------------------|
|-------------------------|------------------------------------|
|-0-0-0-0-0-0-0-0-0---0---|-0-0-0-0-0-0-0-0-----5h8-----4h7----|
|-0-0-0-0-0-0-0-0-0---0---|-0-0-0-0-0-0-0-0-5h8-----4h7--------|


   B r e a k d o w n!
    D5                                        N.C.
    Gtrs I, II, IV
    PM------------------|     PM------------|
    S S S S S S S S E E E E   S S S S S S S S S S S S S S S S
||--------------------------|---------------------------------|
||o-------------------------|---------------------------------|
||--------------------------|---------------------------------|
||--------------------------|---------------------------------|
||o-0-0-0-0-0-0-0-0-0---0---|-0-0-0-0-0-0-0-0-----5h8-----4h7-|
||--0-0-0-0-0-0-0-0-0---0---|-0-0-0-0-0-0-0-0-5h8-----4h7-----|


  D5                                        N.C.
  PM------------------|     PM------------|
  S S S S S S S S E E E E   S S S S S S S S S S S S S S S S
|-------------------------|-------------------------------------||
|-------------------------|------------------------------------o||
|-------------------------|-------------------------------------||
|-------------------------|-------------------------------------||
|-0-0-0-0-0-0-0-0-0---0---|-0-0-0-0-0-0-0-0-----5h8-----4h7----o||
|-0-0-0-0-0-0-0-0-0---0---|-0-0-0-0-0-0-0-0-5h8-----4h7---------||


  D5
 2/4
  PM--------------------|
  S S S S S S S S   E E E E
|-----------------|---------*|
|-----------------|---------*|
|-----------------|---------*|
|-----------------|---------*|
|-0-0-0-0-0-0-0-0-|-0---0---*|
|-0-0-0-0-0-0-0-0-|-0---0---*|


Duration Legend
---------------
W - whole; H - half; Q - quarter; E - 8th; S - 16th; T - 32nd; X - 64th; a - acciaccatura
+ - note tied to previous; . - note dotted; .. - note double dotted
Uncapitalized letters represent notes that are staccato (1/2 duration)
Irregular groupings are notated above the duration line
Duration letters will always appear directly above the note/fret number it represents the
duration for.  Duration letters with no fret number below them represent rests.  Multi-
bar rests are notated in the form Wxn, where n is the number of bars to rest for.  Low
melody durations appear below the staff

Tablature Legend
----------------
 h   - hammer-on
 p   - pull-off
 b   - bend
 pb  - pre-bend
 r   - bend release (if no number after the r, then release immediately)
 /\  - slide into or out of (from/to "nowhere")
 s   - legato slide
 S   - shift slide
  - natural harmonic
[n]  - artificial harmonic
n(n) - tapped harmonic
 ~   - vibrato
 tr  - trill
 T   - tap
 TP  - trem. picking
 PM  - palm muting
\n/  - tremolo bar dip; n = amount to dip
 \n  - tremolo bar down
 n/  - tremolo bar up
/n\  - tremolo bar inverted dip
 =   - hold bend; also acts as connecting device for hammers/pulls
 <>  - volume swell (louder/softer)
 x   - on rhythm slash represents muted slash
 o   - on rhythm slash represents single note slash

Misc Legend
-----------
 |  - bar
||  - double bar
||o - repeat start
o|| - repeat end
*|  - double bar (ending)
 :  - bar (freetime)
 $  - Segno
 &  - Coda
Tempo markers -  = BPM(8/16=s8/s16), where s8 = swing 8ths, s16 = swing 16ths


***************************************************************************************
* Generated using Power Tab Editor by Brad Larsen - http://powertab.guitarnetwork.org *
***************************************************************************************

            
            
Suggest correction
Creating personal tab
Creating personal tab
You can edit any tab online and save it as your Personal.

You can edit, replace or remove any tab part or add personal notes – all changes will be seen only by you.

Personal tabs can be accessed anytime from any device, even offline.
Learn more »
comments
print report bad tab
1 comment total.
0 reply
Brockoali 10 Sep 05, 2008 07:59 AM

holy blow job

this is a great tab

guest
You may want to rate the tab now too:
select rating
Wanna post a correction for this tab? Suggest correction