Oops, an error
Loading. Please wait.

Uma-Ness Fran Senegal tab

2,527 views 3 this week
no commentswrite comment
1 2 3 4 5
1 last vote to show rating
add to favorites
×
Save as Personal and add changes to this tab that will be seen only by you. Learn more ›
×
You can save this tab as Personal to edit and correct it or add notes. All changes will be seen only by you. Learn more »
launch autoscroll
font size
0
reset
how to read this tab
guitar tuner
edit
Autoscroll
slow
fast
+/-
esc
set tempo
stop
Tja tyckte de var dags att lite joddla tabulaturer och ackord kom ut, sa varsagod, de kommer mer!


D                       G      D
Dar bor en flicka i ett annat land.
D             A      D
Uma Ness fran Senegal
D                         G           D
Hon bor vid en flod, hon bor vid en strand.
D            A        D
Uma Ness fran Senegal
G                          C       G
Nar natten kommer, sa blir flickan frusen.
G              D
Uma Ness fran Senegal
D                         G        D
Dar hon ligger och sover i palmblads husen.
D            A       D
Uma Ness fran Senegal



F#             G            D     A
Dar sitter fem flugor pa din mun.
F#             G           A
Smycket i ditt ora e flera tum.
F#                G           D     A
Det va knappt ett ar sen alla svalt.
F#              G         A
Darfor maste nu alla ata allt.

G       C                      D
Hon kom igen, kom igen, kom igen.
d
Hon kommer aldrig mer igen. x4

Mellanspel
Bm                G              D              A


outro
G    D        A     D

Solo

e|----------------------------------------10-----------------------|
B|------------10----------------10---12-------12---10--------------|
G|-----11----------11-------11---------------------------11--------|
D|-12-----12-----------12------------------------------------------|
A|-----------------------------------------------------------------|
E|-----------------------------------------------------------------|

e|------------------------------------------------------------------|
B|----10-10---------10----------------------------------------------|
G|------------------------11-------11---9--9----------9---11--------|
D|-12---------12-------------12-----------------12---------------12-|
A|------------------------------------------------------------------|
E|------------------------------------------------------------------|

Hoppas det gar bra!

om ni har nagra fragor sa kontakta mig pa connylundquist@live.se
Suggest correction
Creating personal tab
Creating personal tab
You can edit any tab online and save it as your Personal.

You can edit, replace or remove any tab part or add personal notes – all changes will be seen only by you.

Personal tabs can be accessed anytime from any device, even offline.
Learn more »
Give kudos to tab author, rate the tab!
1 2 3 4 5
comments
print report bad tab
guest
You may want to rate the tab now too:
select rating
Wanna post a correction for this tab? Suggest correction