Oops, an error
Loading. Please wait.

Driving Towards The Daylight tab

version 4
version 4

Whole song

19,731 views 60 this week
8 commentsread comments
1 2 3 4 5
x 9
add to favorites
×
Save as Personal and add changes to this tab that will be seen only by you. Learn more ›
×
You can save this tab as Personal to edit and correct it or add notes. All changes will be seen only by you. Learn more »
launch autoscroll
font size
0
reset
how to read this tab
guitar tuner
edit
Autoscroll
slow
fast
+/-
esc
set tempo
stop
Author
Difficulty
Joe Bonamassa - Driving Towards the Daylight
Standard Tuning - ( E A D G B E )
Capo -1st Fret

This is the main riff in the song, these chords are played throughout the entire song 
and are
played with light distortion during the chorus'.Listen to the track for strumming patterns.

          Em         G          D           Cadd9
e|--------------------3--3-3--------2--2-2--------3--3-3---|
B|--------------------3--3-3--------3--3-3--------3--3-3---|
G|----7-/-9-9---------0--0-0-----2--2--2-2--------0--0-0---|
D|----7-/-9-9---------0--0-0---0----0--0-0-----2--2--2-2---|
A|----5-/-7-7------2--2--2-2-----------------3----3--3-3---|
E|---------------3----3--3-3-------------------------------|

[Verse 1]
                     Em                   G
   Look upon a mountain, waitin' on a train.
                D                      Cadd9
   Baby I know what's wrong, and it's still happening.
     Em               G          D                Cadd9
   Waiting on my... destiny, learning from my abilities.
    Em           G
   Who was wrong and who was right and
   Cadd9                D
   do we even know why we are fighting?
    Em            G           D
   So take your eyes off of me
     Cadd9
   and look upon the churning sea.

[Chorus]
    Em                   G                         D
  Driving towards the daylight, running from the midnight,
   Cadd9
  trying to get my way home.
    Em                  G                        D
  Running from the spotlight, trying to find the daylight,
   Cadd9
  trying to get back home.

[Verse 2]
    Em             G               D                          Cadd9
  Rusty strings on my old guitar, speaks volumes of who you are.
   Em                          G             D                      Cadd9
  So never did I think it was you, It was me, one of the chosen few
    Em             G                  D                 Cadd9
  Who will it be, oh the next time? Hopefully one with more sense of mind.
   Em                  G
  So where did you go? Always will see,
   D                  Cadd9
  it's a story of you and me.

[Chorus 2]
    Em                   G                         D
  Driving towards the daylight, running from the midnight,
   Cadd9
  trying to get my way home.
    Em                  G                        D
  Running from the spotlight, trying to find the daylight,
   Cadd9
  trying to get back home.

[Solo]
                                         This is the minor lick i play,
                                       anything in the E minor pentatonic will work.
e|----------------12------------------15-------------------17---------------12--------------|
B|----------------15b17---------------18b20----------------20b22-----15b17-----15--12--15---|
G|------------------------------------------------------------------------------------------|
D|------------------------------------------------------------------------------------------|
A|-------------7--------------------7-------------------7-----------------------------------|
E|--0--3--5/7------------0--3--5/7-----------0--3--5/7--------------------------------------|

e|----------------12------------------10-------------------17---------------12--------------|
B|----------------15b17---------------13b15----------------20b22-----15b17-----15--12--15---|
G|------------------------------------------------------------------------------------------|
D|------------------------------------------------------------------------------------------|
A|-------------7--------------------7-------------------7-----------------------------------|
E|--0--3--5/7------------0--3--5/7-----------0--3--5/7--------------------------------------|

[Chorus 3&4]
  Em                   G                         D
  Driving towards the daylight, running from the midnight,
   Cadd9
  trying to get my way home.
    Em                  G                        D
  Running from the spotlight, trying to find the daylight,
   Cadd9
  trying to get back home.  X2

[Outro Chords]  Em,  G,  D,  Cadd9

************************************

| /  Slide up
| b  Bend

************************************
Suggest correction
Creating personal tab
Creating personal tab
You can edit any tab online and save it as your Personal.

You can edit, replace or remove any tab part or add personal notes – all changes will be seen only by you.

Personal tabs can be accessed anytime from any device, even offline.
Learn more »
comments
print report bad tab
8 comments total. Showing first comments.
0 reply
art671 10 Mar 20, 2013 10:30 AM

Great tab. But I think the capo should be on the 1st fret, not the 2nd. But the rest seems spot on, thanks!

0 reply
tj4234 10 May 13, 2013 01:06 PM

awesome. But the C and D chords are in the wrong order. Em, G, D, C

0 reply
tj4234 10 May 13, 2013 01:07 PM

^^that's in the chorus I mean

guest
You may want to rate the tab now too:
select rating
Wanna post a correction for this tab? Suggest correction