Oops, an error
Loading. Please wait.

Jockey Full Of Bourbon Tab

version 1
version 1

Whole song

Interactive

26,704 views 81 this week
1 commentread comment
1 2 3 4 5
x 18
add to favorites
launch autoscroll
font size
0
reset
how to read this tab
guitar tuner
Autoscroll
slow
fast
+/-
esc
set tempo
stop
Help us to improve Ultimate-Guitar.com Take our survey!
×
Author
Difficulty
  follow
intermediate
(This riff is played a few times throughout the song.)
e|--------1---------------------1----------------------|
B|--------1--------6-9-6--------1------4---------------|
G|--------1--4/5-8--------------1--3/5---5-4-3--1------|
D|--------3---------------------3-----------------3p1--| (x2)
A|--------3---------------------3----------------------|
E|--1--1--1---------------1--1--1----------------------|

[Verse 1]
 Fm C Fm
Edna million in a drop dead suit, Dutch pink on a downtown train
 Fm  c Fm
Two dollar pistol but the gun won't shoot, I'm in the corner on the pouring rain
 Fm C  Fm
Sixteen men on a dead man's chest, I been drinking from the broken cup
  Fm  C  Fm
Two pairs of pants and a mohair vest, I'm full of bourbon and i can't stand up

[Chorus 1]
Bbm Fm
Hey little bird , fly away home
C  Fm
Your house is on fire , your children alone
Bbm Fm
Hey little bird , you fly away home
C  Fm
Your house is on fire , your children alone

(Back to intro riff with small change)
(After this is played once it does a different lick at the end, listenn for timing.)
e|--------1---------------------1----------------------|-------------------------------------|
B|--------1--------6-9-6--------1------4---------------|---------6--11b13-9------------------|
G|--------1--4/5-8--------------1--3/5---5-4-3--1------|---4/5-8------------10-3-1-----------|
D|--------3---------------------3-----------------3p1--|---------------------------3-1--1t3--|
A|--------3---------------------3----------------------|-------------------------------------|
E|--1--1--1---------------1--1--1----------------------|-------------------------------------|

[Verse 2] 
Fm C Fm 
Schiffer broke a bottle on Morgan's head, I'm stepping on the devil's tail
Fm CF m
Across the stripes of a full moon's head, All through the bar's of a Cuban jail
Fm  C  Fm
Bloody finger's on a purple knife, Flamingo drinking from a cocktail glass
Fm C  Fm
I'm on the lawn with someone else's wife, Admire the view from the top of the mast

[Chorus 2]
Bbm Fm
Hey little bird , fly away home
C  Fm
Your house is on fire , your children alone
Bbm Fm
Hey little bird , you fly away home
C  Fm
Your house is on fire , your children alone

[Instrumental]
(Just before solo begins hold the F note and dont play the lick, listen for timing.)
e|--------1---------------------1----------------------|
B|--------1--------6-9-6--------1------4---------------|
G|--------1--4/5-8--------------1--3/5---5-4-3--1------|
D|--------3---------------------3-----------------3p1--| 
A|--------3---------------------3----------------------|
E|--1--1--1---------------1--1--1----------------------|  

[Solo]
e|--13~--------13-------13-------13-13-----13-----------------------------------|
B|--13~--16b18----16b18----16b18----16b18-----16-13-------13--------------------|
G|--13~---------------------------------------------15b17----15-13----13h15h13--|
D|-----------------------------------------------------------------15-----------|
A|------------------------------------------------------------------------------|
E|------------------------------------------------------------------------------|

e|--13~--------13-------------16b18--13----------13-----|
B|--13~--16b18----16b18r16-13-----------16p13----16b18--|
G|--13~---------------------------------------15--------|
D|------------------------------------------------------|
A|------------------------------------------------------|
E|------------------------------------------------------|

e|--13~----------------------------------------------|
B|--13~----------------------------------------------|
G|--13~--15sb17-13-----------13h15-13h15-13h15p13~---|
D|-----------------15--13-15-------------------------|
A|---------------------------------------------------|
E|---------------------------------------------------|

e|--16b18r16-13-16-13-------13-----------------------------------------------------1~---|
B|--------------------16b18----16-13-----------------------------------------------1~---|
G|-----------------------------------15b17r15-13-----3b5-3b5r3p1----1--------------1~---|
D|-----------------------------------------------15--------------3----3-1---------------|
A|------------------------------------------------------------------------3-2-----------|
E|----------------------------------------------------------------------------4--1------|
  The last few licks are not 100% but they will fit with 
  the song.

[Verse 3]
Fm C  Fm
Yellow sheets on a Hong Kong bed, Stazybo horn and a slingerland ride
Fm C  Fm
To the carnival is what she said, A couple hundred dollars makes it dark inside
Fm C Fm
Edna million in a drop dead suit, Dutch pink on a downtown train
Fm C  Fm 
Two dollar pistol but the gun won't shoot, I'm in the corner on the pouring rain

[Chorus 3, 4]
Bbm Fm
Hey little bird , fly away home
C  Fm
Your house is on fire , your children alone
Bbm Fm
Hey little bird , you fly away home
C  Fm
Your house is on fire , your children alonex2

[main riff]
e|--------1---------------------1----------------------|
B|--------1--------6-9-6--------1------4---------------|
G|--------1--4/5-8--------------1--3/5---5-4-3--1------|
D|--------3---------------------3-----------------3p1--| (x2)
A|--------3---------------------3----------------------|
E|--1--1--1---------------1--1--1----------------------|

[Outro Chords]
Fm C Bbm



************************************

| /  Slide up
| p  Pull-off
| b  Bend
| t  Tapping
| ~  Vibrato
| h  Hammer-on
| r  Release

************************************
Suggest correction
comments
print report bad tab
1 comment total.
0 reply
jurewiczarkadiusz 10 Nov 17, 2016 10:20 AM

great! thx!

guest
You may want to rate the tab now too:
select rating
Wanna post a correction for this tab? Suggest correction