Oops, an error
Loading. Please wait.

Lie 1 tab

6,221 views 6 this week
3 commentsread comments
1 2 3 4 5
x 4
add to favorites
×
Save as Personal and add changes to this tab that will be seen only by you. Learn more ›
×
You can save this tab as Personal to edit and correct it or add notes. All changes will be seen only by you. Learn more »
launch autoscroll
font size
0
reset
how to read this tab
guitar tuner
edit
Autoscroll
slow
fast
+/-
esc
set tempo
stop
Author
Difficulty
Well, this is the tab for Lie #1, by Joe Bonamassa, off his album, "So It's Like That."
always, feel free to e-mail me any changes at skynyrd128@gmail.com, but, again, please
pass this off as your own work- it took a lot of time and energy to complete- Enjoy...


Intro (then again at 2:50 and 3:59):
-----------------------------------------------------------------------------------|
-----------------------------------------------------------------------------------|
-----------------------------------------------------------------------------------|
-0-2-5-2-5-3-2---------------------------------------------------------------------|
------------------5-3-2------------------------------------------------------------|
-------------------------3(b)-0----------------------------------------------------|


verse:
E   G   A  D (I'm pretty sure I hear the F# in there)
------------------------------------------------------------------------------------|
--------2--3-3-3-3-3----------------------------------------------------------------|
----0---2--2-2-2-2-2----------------------------------------------------------------|
-2--0---2--4-4-4-4-4----------------------------------------------------------------|
-2--2---0---------------------------------------------------------------------------|
-0--3-------------------------------------------------------------------------------|


then, at 0:57 (repeat 4, with some extra open notes etc. just listen and play it with
you'll get it)
---------------------------------------------------------------------------------------|
------------------------------------3--3-3(p)2-----------------------------------------|
------------------------0-2---------------------2--------------------------------------|
------0(h)2(p)0-------0-2--------------------------------------------------------------|
-------------------0-0-------0-0-0--0--------------------------------------------------|
-0-0-----------------------------------------------------------------------------------|

Then (1:17)

                            *go into verse
-----------------------------------------------------------------------------------------|
------0--------0----------0------------3-3----3------2-2-2-------------------------------|
--------3--------3----------4----------2-2------2----2-2-2-------------------------------|
----------4--------4----------5--5/7--4-4--------4--2-2-2-----------2--------------------|
----------------------------------5/7------------------0-0-0--0-------2------------------|
--2-2-------2---------3-3-------3/5-----------------------------3(b)-0*------------------|


Solo (1:59):
                          *w/bar
----6-7-7-7(b)-6---------------------12-------12------12----------|
---7-------------7\-7(b)--------15(b)---12--15---15(b)--12-15(b)--|
-/6---------------------6\*---------------------------------------|
------------------------------------------------------------------|
------------------------------------------------------------------|
------------------------------------------------------------------|

-12---15(b)-15-12-----17(b)-17(r)-15------------------------------|
---12------------15\-----------------17-15-17(b)-15---------------|
----------------------------------------------------16\14-12-14---|
------------------------------------------------------------------|
------------------------------------------------------------------|
------------------------------------------------------------------|
             *artificial harmonic
--------------------------------------15------15-17----------17-20(b)----|
----------------------------15---12-15---------------0-------------------|
-12--12(b)-12*--------12-----------------14-16-------------17------------|
---14-----------12-14----14---14-------------------------19--------------|
-------------------------------------------------------------------------|
-------------------------------------------------------------------------|

-17--17-20--17----------------------------------12-----------------|
---20-----20--17-20(b)-20-17-17-20-17\--------12--15---------------|
-----------------------------------------14(b)------15\14-12-14----|
---------------------------------------------------------------14--|
-------------------------------------------------------------------|
-------------------------------------------------------------------|

-------------------------------------------------------------------|
-15(b)-15(b)-------------------------------------------------------|
----------14(r)--12-14-12------------------------------------------|
---------------14--------14(p)12-----------------------------------|
--------------------------------14-12------------------------------|
--------------------------------------15(v)------------------------|

Then, under "seems you've been hanging out..." (repeat 2x)
-------------------------------------------------------------------|
--------------------------2-3-3-3(p)2------------------------------|
-----------------0-2------2-2-2-2----2-----------------------------|
----0(h)2(p)0----0-2-0-0-0-----------------------------------------|
--------------0-0--------------------------------------------------|
-0-0-----------------------------------3(b)------------------------|

Then:
------------------------------------------------------------------------------|
------0--------0----------0------------3-3----3------2-2-2--------------------|
--------3--------3----------4----------2-2------2----2-2-2--------------------|
----------4--------4----------5--5/7--4-4--------4--2-2-2-----------2---------|
----------------------------------5/7------------------0-0-0--0-------2-------|
--2-2-------2---------3-3-------3/5-----------------------------3(b)-0*-------|

Fills:
 1.)(3:05)
-12-12-12----------------------------------------------------------|
-------------------------------------------------------------------|
----------15\14-12-12(v)-------------------------------------------|
-------------------------------------------------------------------|
-------------------------------------------------------------------|
-------------------------------------------------------------------|

2.) (3:15)
-17(b)-15----------------------------------------------------------|
---------17-17-17-(17)(p)15----------------------------------------|
-------------------------------------------------------------------|
-------------------------------------------------------------------|
-------------------------------------------------------------------|
-------------------------------------------------------------------|

3.) (3:24)
-17(b)--15-17-15---------------------------------------------------|
------17-----------------------------------------------------------|
-------------------------------------------------------------------|
-------------------------------------------------------------------|
-------------------------------------------------------------------|
-------------------------------------------------------------------|

4.) (3:35)
------12-----12----------------------------------------------------|
-15(b)-------12-15-------------------------------------------------|
--------14(b)------14(b)-12-14-12----------------------------------|
----------------------------------14-------------------------------|
-------------------------------------------------------------------|
-------------------------------------------------------------------|

5.) (3:41)
-15(b)-15-12---12-15-12--------------------------------------------|
-------------15----------------------------------------------------|
-------------------------------------------------------------------|
-------------------------------------------------------------------|
-------------------------------------------------------------------|
-------------------------------------------------------------------|

6.) (3:45) (I'm not 100% sure about this- it's REALLY tough to hear,
            but this is my best guess...)
-15(b)-15-12--------------------------------------------------------|
-------------15(p)12-------12-15-12-15-12---------------------------|
---------------------14(b)----------------14-12---------------------|
------------------------------------------------14-12---------------|
------------------------------------------------------14-12---------|
------------------------------------------------------------15-12\--|

7.) (3:51)
-17(b)-17(b)-17(r)-15--------------------20(b)-17(b)17-15-17-15----|
----------------------17-17--17-17-17-17---------------------------|
-------------------------------------------------------------------|
-------------------------------------------------------------------|
-------------------------------------------------------------------|
-------------------------------------------------------------------|

8.) (4:03)
 3x       then (3x):
-12-------------12-12------12-12------12-12------12----------------|
-15(b)-----15(b)------15(b)------15(b)------15(b)------------------|
----------------------------------------------------14(b)-12-------|
-------------------------------------------------------------------|
-------------------------------------------------------------------|
-------------------------------------------------------------------|


End

            
            
Suggest correction
Creating personal tab
Creating personal tab
You can edit any tab online and save it as your Personal.

You can edit, replace or remove any tab part or add personal notes – all changes will be seen only by you.

Personal tabs can be accessed anytime from any device, even offline.
Learn more »
comments
print report bad tab
3 comments total.
0 reply
shortymike 30 Jun 24, 2008 03:17 AM

THANK YOU SOOOOOOOOO MUCH. THIS SONG IS AWSOME.

CAN U PLZ TAB OUT EITHER THE SOLO TO STARSHIP TROOPER OR THE INTRO SOLO TO BRIDGE TO BETTER DAYS PLZ. THNX AGAIN

0 reply
ma.77y 10 Jan 04, 2011 08:27 AM

Thanks for the tab, very good

0 reply
konschote 21 Apr 06, 2011 11:11 AM

Intro (then again at 2:50 and 3:59):
-----------------------------------------------------------------------------------|
-----------------------------------------------------------------------------------|
-----------------------------------------------------------------------------------|
-0-2-5-2-5-4-2---------------------------------------------------------------------|
------------------5-4-2------------------------------------------------------------|
-------------------------3(b)-0----------------------------------------------------|

guest
You may want to rate the tab now too:
select rating
Wanna post a correction for this tab? Suggest correction