Oops, an error
Loading. Please wait.

The Ballad Of John Henry tab

version 4
version 4

Whole song

Interactive

8,721 views 54 this week
3 commentsread comments
1 2 3 4 5
x 7
add to favorites
×
Save as Personal and add changes to this tab that will be seen only by you. Learn more ›
×
You can save this tab as Personal to edit and correct it or add notes. All changes will be seen only by you. Learn more »
launch autoscroll
font size
0
reset
how to read this tab
guitar tuner
backing track
0:00
0:00
edit
Autoscroll
slow
fast
+/-
esc
set tempo
stop
Author
Difficulty
-----------------------------------------------------------------------
                 The Ballad Of John Henry - Joe Bonamassa
-----------------------------------------------------------------------

Tabbed by: Tom White
Email:     tom1995w@hotmail.co.uk

Tuning:    7 string, BEADGBe, slide
           Acoustic, DADGBe, slide

Intro

e|-----------------|----------------|-----------------|---------------|
B|-----------------|----------------|-----------------|---------------|
G|-----------------|----------------|-----------------|---------------|
D|-----------------|----------------|-----------------|-7------9------| 
A|-----------------|-5--------------|-----------------|-5------7------|
E|-----7---5-7-----|--------7-5-7---|-----7-5-7-------|---------------|
B|-0-----------0---|----------------|-0-----------0---|---------------|

e|-----------------|----------------|-----------------|---------------|
B|-----------------|----------------|-----------------|---------------|
G|-----------------|----------------|-----------------|---------------|
D|-----------------|-4--------------|-----------------|-7------9------| 
A|-----------------|-5--------------|-----------------|-5------7------|
E|-----7---5-7-----|--------7-5-7---|-----7-5-7-------|---------------|
B|-0-----------0---|----------------|-0-----------0---|---------------|

Intro Chorus

e|-----------------|----------------|-----------------|---------------|
B|-----------------|----------------|-----------------|---------------|
G|-----------------|----------------|-----------------|-7------9------|
D|-----------------|-4--------------|-----------------|-7------9------| 
A|-----------------|-5--------------|-----------------|-5------7------|
E|-----7---5-7-----|--------7-5-7---|-----7-5-7-------|-5------7------|
B|-0-----------0---|----------------|-0-----------0---|---------------|

e|-----------------|----------------|-----------------|---------------|
B|-----------------|----------------|-----------------|---------------|
G|-----------------|----------------|-----------------|-7------9------|
D|-----------------|-4--------------|-----------------|-7------9------| 
A|-----------------|-5--------------|-----------------|-5------7------|
E|-----7---5-7-----|--------7-5-7---|-----7-5-7-------|-5------7------|
B|-0-----------0---|----------------|-0-----------0---|---------------|

e|-----------------|----------------|-----------------|---------------|
B|-----------------|----------------|-----------------|---------------|
G|-----------------|----------------|-----------------|-7------9------|
D|-----------------|-4--------------|-----------------|-7------9------| 
A|-----------------|-5--------------|-----------------|-5------7------|
E|-----7---5-7-----|--------7-5-7---|-----7-5-7-------|-5------7------|
B|-0-----------0---|----------------|-0-----------0---|---------------|

e|-----------------|----------------|-----------------|---------------|
B|-----------------|----------------|-----------------|---------------|
G|-----------------|----------------|-----------------|-7------9------|
D|-----------------|-4--------------|-----------------|-7------9------| 
A|-----------------|-5--------------|-----------------|-5------7------|
E|-----7---5-7-----|--------7-5-7---|-----7-5-7-------|-5------7------|
B|-0-----------0---|----------------|-0-----------0---|---------------|

Verse 1 Acoustic w/ Slide

e|-----------------|-----------------|-----------------|---------------|
B|-----------------|-----------------|-----------------|---------------|
G|---7-----7-------|---7-----7-------|---7-----7-------|---------------|
D|-----9-----9-----|-----9-----9-----|-----9-----9-----|-5ssssss7------|
A|-------9-----9---|-------9-----9---|-------9-----9---|-5ssssss7------|
D|-9-------------9-|---------------9-|---------------9-|-5ssssss7------|

e|-----------------|-----------------|-----------------|---------------|
B|-----------------|-----------------|-----------------|---------------|
G|---7-----7-------|---7-----7-------|---7-----7-------|---------------|
D|-----9-----9-----|-----9-----9-----|-----9-----9-----|-5ssssss7------|
A|-------9-----9---|-------9-----9---|-------9-----9---|-5ssssss7------|
D|-9-------------9-|---------------9-|---------------9-|-5ssssss7------|

e|-----------------|-----------------|-----------------|---------------|
B|-----------------|-----------------|-----------------|---------------|
G|---7-----7-------|---7-----7-------|---7-----7-------|---------------|
D|-----9-----9-----|-----9-----9-----|-----9-----9-----|-5ssssss7------|
A|-------9-----9---|-------9-----9---|-------9-----9---|-5ssssss7------|
D|-9-------------9-|---------------9-|---------------9-|-5ssssss7------|

e|-----------------|-----------------|-------------------|-------7-------|
B|-----------------|-----------------|-------------------|---------------|
G|---7-----7-------|-7-----6-----7---|-7-----7-----7-----|-7-------------|
D|-----9-----9-----|---9-------9---9-|---9-----9-----9---|---9-----------|
A|-------9-----9---|-----9-----------|-----9-----9-----9-|-----9---------|
D|-9-------------9-|-----------------|-------------------|---------------|

Chorus 1

e|-----------------|----------------|-----------------|---------------|
B|-----------------|----------------|-----------------|---------------|
G|-----------------|----------------|-----------------|---------------|
D|-----------------|-4--------------|-----------------|-7------9------| 
A|-----------------|-5--------------|-----------------|-5------7------|
E|-----7---5-7-----|--------7-5-7---|-----7-5-7-------|---------------|
B|-0-----------0---|----------------|-0-----------0---|---------------|

e|-----------------|----------------|-----------------|---------------|
B|-----------------|----------------|-----------------|---------------|
G|-----------------|----------------|-----------------|---------------|
D|-----------------|-4--------------|-----------------|-7------9------| 
A|-----------------|-5--------------|-----------------|-5------7------|
E|-----7---5-7-----|--------7-5-7---|-----7-5-7-------|---------------|
B|-0-----------0---|----------------|-0-----------0---|---------------|

e|-----------------|----------------|-----------------|---------------|
B|-----------------|----------------|-----------------|---------------|
G|-----------------|----------------|-----------------|---------------|
D|-----------------|-4--------------|-----------------|-7------9------| 
A|-----------------|-5--------------|-----------------|-5------7------|
E|-----7---5-7-----|--------7-5-7---|-----7-5-7-------|---------------|
B|-0-----------0---|----------------|-0-----------0---|---------------|

e|-----------------|----------------|-----------------|---------------|
B|-----------------|----------------|-----------------|---------------|
G|-----------------|----------------|-----------------|---------------|
D|-----------------|-4--------------|-----------------|-7------9------| 
A|-----------------|-5--------------|-----------------|-5------7------|
E|-----7---5-7-----|--------7-5-7---|-----7-5-7-------|---------------|
B|-0-----------0---|----------------|-0-----------0---|---------------|

Verse 2 Acoustic w/ Slide

e|-----------------|-----------------|-----------------|---------------|
B|-----------------|-----------------|-----------------|---------------|
G|---7-----7-------|---7-----7-------|---7-----7-------|---------------|
D|-----9-----9-----|-----9-----9-----|-----9-----9-----|-5ssssss7------|
A|-------9-----9---|-------9-----9---|-------9-----9---|-5ssssss7------|
D|-9-------------9-|---------------9-|---------------9-|-5ssssss7------|

e|-----------------|-----------------|-----------------|---------------|
B|-----------------|-----------------|-----------------|---------------|
G|---7-----7-------|---7-----7-------|---7-----7-------|---------------|
D|-----9-----9-----|-----9-----9-----|-----9-----9-----|-5ssssss7------|
A|-------9-----9---|-------9-----9---|-------9-----9---|-5ssssss7------|
D|-9-------------9-|---------------9-|---------------9-|-5ssssss7------|

e|-----------------|-----------------|-----------------|---------------|
B|-----------------|-----------------|-----------------|---------------|
G|---7-----7-------|---7-----7-------|---7-----7-------|---------------|
D|-----9-----9-----|-----9-----9-----|-----9-----9-----|-5ssssss7------|
A|-------9-----9---|-------9-----9---|-------9-----9---|-5ssssss7------|
D|-9-------------9-|---------------9-|---------------9-|-5ssssss7------|

e|-----------------|-----------------|-----------------|---------------|
B|-----------------|-----------------|-----------------|---------------|
G|---7-----7-------|---7-----7-------|---7-----7-------|---------------|
D|-----9-----9-----|-----9-----9-----|-----9-----9-----|-5ssssss7------|
A|-------9-----9---|-------9-----9---|-------9-----9---|-5ssssss7------|
D|-9-------------9-|---------------9-|---------------9-|-5ssssss7------|

Chorus 2

e|-----------------|----------------|-----------------|---------------|
B|-----------------|----------------|-----------------|---------------|
G|-----------------|----------------|-----------------|---------------|
D|-----------------|-4--------------|-----------------|-7------9------| 
A|-----------------|-5--------------|-----------------|-5------7------|
E|-----7---5-7-----|--------7-5-7---|-----7-5-7-------|---------------|
B|-0-----------0---|----------------|-0-----------0---|---------------|

e|-----------------|----------------|-----------------|---------------|
B|-----------------|----------------|-----------------|---------------|
G|-----------------|----------------|-----------------|---------------|
D|-----------------|-4--------------|-----------------|-7------9------| 
A|-----------------|-5--------------|-----------------|-5------7------|
E|-----7---5-7-----|--------7-5-7---|-----7-5-7-------|---------------|
B|-0-----------0---|----------------|-0-----------0---|---------------|

e|-----------------|----------------|-----------------|---------------|
B|-----------------|----------------|-----------------|---------------|
G|-----------------|----------------|-----------------|---------------|
D|-----------------|-4--------------|-----------------|-7------9------| 
A|-----------------|-5--------------|-----------------|-5------7------|
E|-----7---5-7-----|--------7-5-7---|-----7-5-7-------|---------------|
B|-0-----------0---|----------------|-0-----------0---|---------------|

e|-----------------|----------------|-----------------|---------------|
B|-----------------|----------------|-----------------|---------------|
G|-----------------|----------------|-----------------|---------------|
D|-----------------|-4--------------|-----------------|-7------9------| 
A|-----------------|-5--------------|-----------------|-5------7------|
E|-----7---5-7-----|--------7-5-7---|-----7-5-7-------|---------------|
B|-0-----------0---|----------------|-0-----------0---|---------------|

Bridge

e|------------------------|--------------------------|
B|------------------------|--------------------------|
G|-11-11-11-11-11-11-12---|-11-12-11-9-9-9-9-9-9-9-9-|
D|-11-11-11-11-11-11-12---|-11-12-11-9-9-9-9-9-9-9-9-|
A|-9--9--9--9--9--9--10---|-9--10-9--7-7-7-7-7-7-7-7-|
E|------------------------|----------------0-0-0-0-0-|
B|------------------------|--------------------------|

e|------------------------|--------------------------|
B|------------------------|--------------------------|
G|-11-11-11-11-11-11-12---|-11-12-11-9-9-9-9-9-9-9-9-|
D|-11-11-11-11-11-11-12---|-11-12-11-9-9-9-9-9-9-9-9-|
A|-9--9--9--9--9--9--10---|-9--10-9--7-7-7-7-7-7-7-7-|
E|------------------------|----------------0-0-0-0-0-|
B|------------------------|--------------------------|

e|------------------------|--------------------------|
B|------------------------|--------------------------|
G|-11-11-11-11-11-11-12---|-11-12-11-9-9-9-9-9-9-9-9-|
D|-11-11-11-11-11-11-12---|-11-12-11-9-9-9-9-9-9-9-9-|
A|-9--9--9--9--9--9--10---|-9--10-9--7-7-7-7-7-7-7-7-|
E|------------------------|----------------0-0-0-0-0-|
B|------------------------|--------------------------|

e|------------------------|--------------------------|
B|------------------------|--------------------------|
G|-11-11-11-11-11-11-12---|-11-12-11-9-9-9-9-9-9-7---|
D|-11-11-11-11-11-11-12---|-11-12-11-9-9-9-9-9-9-7---|
A|-9--9--9--9--9--9--10---|-9--10-9--7-7-7-7-7-7-5---|
E|------------------------|----------------0-0-0-----|
B|------------------------|--------------------------|

e|------------------------|--------------------------|
B|------------------------|--------------------------|
G|-11-11-11-11-11-11-12---|-11-12-11-9-9-9-9-9-9-9-9-|
D|-11-11-11-11-11-11-12---|-11-12-11-9-9-9-9-9-9-9-9-|
A|-9--9--9--9--9--9--10---|-9--10-9--7-7-7-7-7-7-7-7-|
E|------------------------|----------------0-0-0-0-0-|
B|------------------------|--------------------------|


e|--------------------------------------|
B|--------------------------------------|
G|--------------------------------------|
D|--------------------------------------|
A|--------------------------------------|
E|--------------------------------------|
B|-0------------------------------------|

Solo w/ Slide

e|---------------------------------------------------- -|
B|-----------------------------------------------------|
G|-----------------------------------------------------|
D|-----------------------------------------------------|
A|-/s7----s\4--------------/s7-------s\4---------------|
E|-----------------------------------------------------|
B|------------0-0-0-0-0-0----------------0-0-0-0-0-0-0-|


e|---------------------------------------------------------|
B|---------12~~~~~~~~~-12s14-14s15-15s14-14s12-12s10-10s7--|
G|-11s9-/s11---------------------------------------------7-|
D|---------------------------------------------------------|
A|---------------------------------------------------------|
E|---------------------------------------------------------|
B|---------------------------------------------------------|

e|--------------------------10--/s12--10s7s10--------------------------------------|
B|-5/s5~~~~~~~~~~------/s10---------------------12s10----/s12-/s12-10----10--------|
G|---------------4/s4---------------------------------11--------------11----11-7-9-|
D|---------------4/s4--------------------------------------------------------------|
A|---------------------------------------------------------------------------------|
E|---------------------------------------------------------------------------------|
B|---------------------------------------------------------------------------------|

e|--------------------------------------------|
B|-/s10-------10s\-7-5-7---7s9s10s9s7s5s/--5--|
G|------------------------------------------4-|
D|--------------------------------------------|
A|--------------------------------------------|
E|--------------------------------------------|
B|--------------------------------------------|
B|--------------------------------------------|

e|---------------------------------------------------------------------|
B|---------------------------------------------------------------------|
G|---------------------------------------------------------------------|
D|------4-2-4---4-2-4-4---7s9---9s8-8-8s4s2--------2-------------------|
A|-/s4---------------------------------------2-s-4---4-4---------------|
E|-------------------------------------------------------------0-------|
B|-------------------------------------------------------0-0-3---3-0-0-|

e|-------------------------19s\-----------19s\------19s\-|
B|--------------------------------7~~--------------------|
G|---------------/s4s4s\----------7~~----------7---------|
D|---------------/s4s4s\-----------------------9---------|
A|-------------------------------------------------------|
E|-------------------------------------------------------|
B|-3-3-3---3-3-3----------------------7~---------0-------|

e|--------------------------------------------------|
B|-17s15-15-15s14-14s12s10s12-7----7s9-10---12s10-9-|
G|----------------------------7---------------------|
D|--------------------------------------------------|
A|--------------------------------------------------|
E|--------------------------------------------------|
B|--------------------------------------------------|

e|------------------------------------------------------------------|
B|------------------------------------------------------------------|
G|-4s7s9--7---4-2-4---4---2-4-4-4-----------------------------------|
D|-4s7s9--7---4-2-4---4---2-4-4-4-----------------------------------|
A|----------------------------------------2-------------------------|
E|--------------------------------------------------5-7-5-4-5-4-----|
B|--------------------------------3-0-3-0-----0-3-0-------------3-0-|

e|--------------------------|
B|--------------------------|
G|--------4-4-4-------------|
D|--------4-4-4-------------|
A|--------------------------|
E|---0----------0h20h02-----|
B|-3--------------------3-0-|

Verse 3

e|-----------------|-----------------|-------------------|-------------7-|
B|-----------------|-----------------|-------------------|-------7-------|
G|---7-----7-------|-7-----6-----7---|-7-----7-----7-----|-7-------------|
D|-----9-----9-----|---9-------9---9-|---9-----9-----9---|---9-----9-----|
A|-------9-----9---|-----9-----------|-----9-----9-----9-|-----9-----9---|
D|-9-------------9-|-----------------|-------------------|---------------|

e|-----------------|-----------------|-------------------|-------------7-|
B|-----------------|-----------------|-------------------|-------7-------|
G|---7-----7-------|-7-----6-----7---|-7-----7-----7-----|-7-------------|
D|-----9-----9-----|---9-------9---9-|---9-----9-----9---|---9-----9-----|
A|-------9-----9---|-----9-----------|-----9-----9-----9-|-----9-----9---|
D|-9-------------9-|-----------------|-------------------|---------------|

e|-----------------|-----------------|-----------------|---------------|
B|-----------------|-----------------|-----------------|---------------|
G|---7-----7-------|---7-----7-------|---7-----7-------|---------------|
D|-----9-----9-----|-----9-----9-----|-----9-----9-----|-5ssssss7------|
A|-------9-----9---|-------9-----9---|-------9-----9---|-5ssssss7------|
D|-9-------------9-|---------------9-|---------------9-|-5ssssss7------|

e|-----------------|-----------------|-------------------|-------7-------|
B|-----------------|-----------------|-------------------|---------------|
G|---7-----7-------|-7-----6-----7---|-7-----7-----7-----|-7-------------|
D|-----9-----9-----|---9-------9---9-|---9-----9-----9---|---9-----------|
A|-------9-----9---|-----9-----------|-----9-----9-----9-|-----9---------|
D|-9-------------9-|-----------------|-------------------|---------------|

Chorus 3/ Outro

Rhythm same as previous choruses.

Lead:

e|-------------------------------|
B|-------/s10--10-10s\-----------|
G|-----------------------4-2~~~~-|
D|-------------------------------|
A|-/s9---------------------------|
E|-------------------------------|
B|-------------------------------|

e|-7~~---------------7~~---------------|
B|-7~~---------------7~~---------------|
G|-7~~---------------7~~-----2---4-2-4-|
D|-------------------------------------|
A|-------------------------------------|
E|-------------------------------------|
B|-------------------------------------|

e|-7~~--------------------------------------7------7--------------------|
B|-7~~----17b19--15-----15s\-----15-----------10-7---10--------7--------|
G|-7~~--------------16--------------16-16---------------9b11-7---9-9b11-|
D|----------------------------------------------------------------------|
A|---------------------------9s\----------------------------------------|
E|---------------------------9s\----------------------------------------|
B|----------------------------------------------------------------------|

e|-------------------------7~~-------------------------------|
B|-10----------------------7~~--------------/s10-------------|
G|----9b11r9-7s9-7s9-7-----7~~---2---4~~~~--------------7~~~-|
D|-----------------------------------------------------------|
A|-----------------------------------------------------------|
E|-----------------------------------------------------------|
B|-----------------------------------------------------------|

e|------------------------------------|
B|------------------------------------|
G|-9b11---7---7-7h9-9~~~---7----------|
D|----------9----------------9--7b9---|
A|------------------------------------|
E|------------------------------------|
B|------------------------------------|

Ending Rhythm

e|--------------------------------------|
B|--------------------------------------|
G|--------------------------------------|
D|--------------------------------------|
A|-7-----7-----7-----7------------------|
E|---5-----5-----5-----5----------------|
B|--------------------------------------|

************************************

| /   slide up
| \   slide down
| h   hammer-on
| p   pull-off
| ~   vibrato
| +   harmonic
| x   Mute note
| b   Bend
| pb  Pre-bend
| br  Bend release
| pbr Pre-bend release
| brb Bend release bend

************************************

            
            
Suggest correction
Creating personal tab
Creating personal tab
You can edit any tab online and save it as your Personal.

You can edit, replace or remove any tab part or add personal notes – all changes will be seen only by you.

Personal tabs can be accessed anytime from any device, even offline.
Learn more »
comments
print report bad tab
3 comments total. show 1 bad comment
0 reply
Andalus 154 May 26, 2012 12:05 AM

Well thank you for that insightful information, ****-end.

I know he didn't use a 7-string. But I tabbed it out on a 7-string, because it can be played with a 7-string.

Does that make it deserving of a 1-star rating?

No. Now **** off.

+1 reply
Maxarian 10 Jan 04, 2014 09:37 AM

This was very helpful! In fact, people (here and YouTube) have missed that 4/5 on the AD strings that is an integral part of the sound of the song.
It's obvious that you put a lot of time into this. Well done and thanks!

guest
You may want to rate the tab now too:
select rating
Wanna post a correction for this tab? Suggest correction