Oops, an error
Loading. Please wait.

Woke Up Dreamin tab

35,693 views 36 this week
4 commentsread comments
1 2 3 4 5
x 12
add to favorites
×
Save as Personal and add changes to this tab that will be seen only by you. Learn more ›
×
You can save this tab as Personal to edit and correct it or add notes. All changes will be seen only by you. Learn more »
launch autoscroll
font size
0
reset
how to read this tab
guitar tuner
edit
Autoscroll
slow
fast
+/-
esc
set tempo
stop
Author
Woke Up Dreamin'
Joe Bonamassa - Blues Deluxe
Tabbed by: Brennan Lentz
aka: Vaughanabe13

*note* the studio version seems to be tuned down to open D, but I will tab
it as if it were in standard tuning. You can tune down if you wish.
*note2* I realize the song goes very fast so I put time markers throughout the tab that 
show you where the song is at and how much has gone by.

[Intro]
*note* There are many string hits and mutes to create a cool acoustic effect, in 
to the actual notes being played. Just play aggressively against the strings.

e|---------------------------------------------------3p0--:|
B|---------------------------------------------------3p0--:|
G|--------------------------------------------------------:|
D|-2p0---2-------2p0---2-------2p0---2-------2p0---0------:| 
A|--------------------------------------------------------:|
E|-----0---0h3p0-----0---0h3p0-----0---0h3p0-----0--------:|(x4)
0:00                                                0:03


[Intro Part 2]
(before verse):

e|-----------0--------------0-----------0-----------0--|
B|-----------0--------------0-----------0-----------0--|
G|-----------1-------------(1)----------1-----------0--|
D|---0h2-0h2-------0h2-0h2------0h2-0h2-----0h2-0h2----|
A|-----------------------------------------------------|
E|-0-----------3-0------------0-----------0------------|
0:12


[Verse]

e|-----------------------------------------------0-------------------0---:|
B|-----------------------------------------------0-------------------0---:|
G|----------------------------------------------(1)-2p0-------------(1)--:|
D|-2-x-2-x-2---2--2p0-----0h2-0---------0h2-0h2--------2p0--0h2-0h2------:|
A|---x---x---------------------------------------------------------------:|
E|-0-x-0-x-0---0------3-0-------3--3--0--------------------0-------------:|(x2)
0:18
 woke up dreamin'      I was   gonna die                             'cuz my

e|--2-2-2-2-2-2-2-2---2-2-2-2-----------------------0-------------------0--|
B|--0-0-0-0-0-0-0-0---0-0-0-0---2-2-----------------0-------------------0--|
G|--2-2-2-2-2-2-2-2---2-2-2-2---2-2-----------------1-2p0---------------1--|
D|--1-1-1-1-1-1-1-1---1-1-1-1---2-2---------0h2-0h2-------2p0---0h2-0h2----|
A|--2-2-2-2-2-2-2-2---2-2-2-2---0-0----------------------------------------|
E|--------------------------------3--3----0-------------------0------------|
0:31
   baby said her,    said her last  good-byes


[Verse 2]
Reached out for her, and she was not there. Reached out for her, and she was not there. 
I miss her body, and her long brown hair.

[Bridge]

e|--------------------------------------------------------------------------|
B|--------------------------------------------------------------------------|
G|------------1-2p0---------------1-2p0---------------1-2p0--------------1--|
D|---0h2-0h2--2----2p0---0h2-0h2--2----2p0---0h2-0h2--2----2p0---0h2-oh2-2--|
A|--------------------------------------------------------------------------|
E|-0----------0--------0----------0--------0----------0--------0---------0--|
0:57
  heart rate fallin,     river   flood.    black cat bawlin,  moon ... blood

e|----3-3-3-3-3--------3-3---0---------------0------------------0-----|
B|----2-2-2-2-2--------2-2---2---------------0------------------0-----|
G|----2-2-2-2-2--------2-2---2---------------1-2p0-------------(1)----|
D|----2-2-2-2-2--------2-2---2-------0h2-0h2------2p0---0h2-0h2-------|
A|--0-0-0-0-0-0------0-0-0---0----------------------------------------|
E|-------------------------------3--0-----------------0---------------|
1:03
    woke up dreamin,  I was gon-na die                          ...all my

e|-2-2-2-2-2-2-2-2-2-2---------------------------0-------------------0------|
B|-0-0-0-0-0-0-0-0-0-0-2--2----------------------0-------------------0------|
G|-2-2-2-2-2-2-2-2-2-2-2--2----2----------------(1)-2p0--------------1------|
D|-1-1-1-1-1-1-1-1-1-1-2--2----2---------0h2-0h2-------2p0---0h2-0h2--------|
A|-2-2-2-2-2-2-2-2-2-2-0--0----0--------------------------------------------|
E|-----------------------------3----3--0-------------------0----------0h3p0-|
1:09
  sins  abound me,    It's my turn to cry

 Picking Solo:
e|---------------------------------------------------3p0--:|
B|---------------------------------------------------3p0--:|
G|--------------------------------------------------------:|
D|-2p0---2-------2p0---2-------2p0---2-------2p0---0------:| 
A|--------------------------------------------------------:|
E|-----0---0h3p0-----0---0h3p0-----0---0h3p0-----0--------:|(x4)
1:15

e|-----3b--3b--3b------------3b--3b--3b-------|
B|-----2---2---2-------------2---2---2--------|
G|-----2---2---2---2p0-------2---2---2---2----|
D|-----2---2---2------2p0----2---2---2---2----|
A|--0-(0)-(0)-(0)-0-------0-(0)-(0)-(0)--0----|
E|-----------------------------------------3--|
1:27
                                            (alternate picking)

e------------0-------------------0------------2-2-0-00-----------0-(7)--|
b------------0-------------------0------------x-x-0-00-------2---0-(7)--|
g------------1-2p0--------------(1)-2p0-------2-2-2-22------2--2-0-(7)--|
d----0h2-0h2------2p0---0h2-0h2--------2p0----1-1-1-11-----2---2---(7)--|
a-------------------------------------------2---2-2-22--3/4----4--------|
e--0---------0--------0----------0--------------------------------------|

1:30

e|------------0-------------------0--------|
B|------------0-------------------0--------|
G|-----------(1)-2p0--------------1--------|
D|----0h2-0h2-------2p0---0h2-0h2----------|
A|-----------------------------------------|
E|--0-------------------0-----------0h3p0--|
1:36
e----------------------------------------------------------:|
b----------------------------------------------------------:|
g---------------------0---------------------------0--------:|
d-2p0---2-------2p0-----------2p0---2-------2p0------------:| 
a----------------------------------------------------------:|
e-----0---0h3p0-----0---0h3p0-----0---0h3p0-----0---0h3p0--:|(x2)
1:39

e|-----3b--3b--3b------------3b--3b--3b---------|
B|-----2---2---2-------------2---2---2----------|
G|-----2---2---2---2p0-------2---2---2--2p0-----|
D|-----2---2---2------2p0----2---2---2-----2p0--|
A|--0-(0)-(0)-(0)-0-------0-(0)-(0)-(0)---------|
E|----------------------------------------------|
1:46
                                            (alternate picking)

e------------0-------------------0------------2-2-0-00-----------0-(7)--|
b------------0-------------------0------------x-x-0-00-------2---0-(7)--|
g------------1-2p0--------------(1)-2p0-------2-2-2-22------2--2-0-(7)--|
d----0h2-0h2------2p0---0h2-0h2--------2p0----1-1-1-11-----2---2---(7)--|
a-------------------------------------------2---2-2-22--3/4----4--------|
e--0---------0--------0----------0--------------------------------------|

1:49

e|------------0-------------------0--------|
B|------------0-------------------0--------|
G|-----------(1)-2p0--------------1-2p0----|
D|----0h2-0h2-------2p0---0h2-0h2------2p0-|
A|-----------------------------------------|
E|--0-------------------0------------------|
1:55

[Verse 3]
Devil's Risin, you don't have a chance. Devil's risin, you don't have a chance. 
there's fiddles playin, shake your bones and dance.

[Verse 4] 
I just want to, live another day. I just want to, live another day. See that 
haired woman, comin' back this way.

e|---------------------------------------------------3p0--:|
B|---------------------------------------------------3p0--:|
G|--------------------------------------------------------:|
D|-2p0---2-------2p0---2-------2p0---2-------2p0---0------:| 
A|--------------------------------------------------------:|
E|-----0---0h3p0-----0---0h3p0-----0---0h3p0-----0--------:|(x3), then
2:37

e|-----------------------------------------------------|
B|-----------------------------------------------------|
G|-----------------------------------------------------|
D|-2p0---2-------2p0---2-------2p0---2-------2p0-------|
A|----------------------------------------------2p0----| 
E|-----0---0h3p0-----0---0h3p0-----0---0h3p0--------3--|end
2:45

Contact me at Vaughanabe13@aol.com if you have requests or corrections on this tab. 
rate it to show me how well I did.



************************************

| p    Pull-off
| h    Hammer-on
| (n)  Ghost note
| x    Dead note
| b    Bend
| /    Slide up

************************************

            
            
Suggest correction
Creating personal tab
Creating personal tab
You can edit any tab online and save it as your Personal.

You can edit, replace or remove any tab part or add personal notes – all changes will be seen only by you.

Personal tabs can be accessed anytime from any device, even offline.
Learn more »
comments
print report bad tab
4 comments total. Showing first comments.
0 reply
tilleking 1,092 Nov 27, 2006 05:16 AM

Another top tab from Vaughanabe13! Nice work! Loving the Joe Bonamassa tabs!!

0 reply
albino strat! 21 Feb 01, 2007 04:51 AM

very organized and dead on...great tab

0 reply
albino strat! 21 Feb 01, 2007 04:52 AM

when will we be seeing the live version tabbed?
I think that would have to be done by the man himself lol

guest
You may want to rate the tab now too:
select rating
Wanna post a correction for this tab? Suggest correction