Oops, an error
Loading. Please wait.

You Upset Me Baby bass

version 2
version 2

Whole song

Interactive

319 views 1 this week
no commentswrite comment
1 2 3 4 5
x 3
add to favorites
×
Save as Personal and add changes to this tab that will be seen only by you. Learn more ›
×
You can save this tab as Personal to edit and correct it or add notes. All changes will be seen only by you. Learn more »
launch autoscroll
font size
0
reset
guitar tuner
edit
Autoscroll
slow
fast
+/-
esc
set tempo
stop
You Upset My Baby
Originally recorded by B.B.King this version by Joe Bonamassa is
Taken from his third album Blues Deluxe. Bass performance Eric Czar
Tab by bass50611. NOTE TUNE E STRING TO LOWER D so as to fit original
Bass Line. Comments at bass254@btinternet.com 

Intro & Verse 1: (Riff 1)
G|---------------------------------------------------
D|---------------------------------------------------
A|---------------------------------------------------
D|-7--2--4--6---7--2--4--6---7--2--4--6---7--2--4--6-

G|------------------------------------------------------------------------
D|------------------------------------------------------------------------
A|-5--0--2--4--------2--4--------------------------7--7--7--6--5--0--2--4-
D|--------------0--7-------7--2--4--6---7--2--4--6------------------------

G|-------------------------
D|-------------------------
A|-------------------------
D|-7--2--4--6---2--2--2--2-

Verse 2: (Riff 2)
G|---------------------------------------------------
D|---------------------------------------------------
A|---------------------------------------------------
D|-7--2--4--6---7--2--4--6---7--2--4--6---7--2--4--6-

G|----------------------------------------------------------------------
D|----------------------------------------------------------------------
A|------2--4--------2--4---------------------------7-7-7--6--5--0--2--4-
D|-0--7--------0--7-------7--2--4--6---7--2--4--6-----------------------

G|-------------------------
D|-------------------------
A|-------------------------
D|-7--2--4--6---2--2--2--2-

Solo 1: (Repeat Riff 1 x2)

Then Play This: (Riff 3)
G|--------------------------------------------------
D|--------------------------------------------------
A|---------------------------------------0--2--3--4-
D|-7--2--4--6---7--2--4--6---7--2--4--6-------------

G|------------------------------------------------------------------------
D|------------------------------------------------------------------------
A|-5--0--2--6--------2--4--------------------------7--7--7--6--5--0--2--4-
D|--------------0--7-------7--2--4--6---7--2--4--6------------------------

G|-------------------------
D|-------------------------
A|-------------------------
D|-7--2--4--6---2--2--2--2-

Then Play Intro (Riff 1:

Verse 3: (Riff 4)
G|--------------------------------------|--------
D|--------------------------------------|--BREAK-
A|--------------------------------------|-VOCALS-
D|-7--2--4--6---7--2--4--6---7--2--4--6-|--ONLY--

G|-------------------------------------------------------------------------
D|-------------------------------------------------------------------------
A|-5--0--2--4--------2--4---------------------------------------5--0--2--4-
D|--------------0--7-------7--2--4--6---7--2--4--6---2--2--2--1------------

G|-------------------------
D|-------------------------
A|-------------------------
D|-7--2--4--6---2--2--2--2-

Outro: (Riff 5)
G|---------------------------------------------------
D|---------------------------------------------------
A|---------------------------------------------------
D|-7--2--4--6---7--2--4--6---7--2--4--6---7--2--4--6-

G|------------------------------------------------------------------------
D|------------------------------------------------------------------------
A|-5--0--2--4--------2--4--------------------------7--7--7--6--5--0--2--4-
D|--------------0--7-------7--2--4--6---7--2--4--6------------------------

                           (Break)       (Pause)
G|---------------------------------------------------
D|---------------------------------------------------
A|-7--7--7--6--5--0--2--4----------------------------
D|-------------------------7-------8-7--/19-----19\7-


            
            
Suggest correction
Creating personal tab
Creating personal tab
You can edit any tab online and save it as your Personal.

You can edit, replace or remove any tab part or add personal notes – all changes will be seen only by you.

Personal tabs can be accessed anytime from any device, even offline.
Learn more »
Give kudos to tab author, rate the tab!
1 2 3 4 5
comments
print report bad tab
guest
You may want to rate the tab now too:
select rating
Wanna post a correction for this tab? Suggest correction