Oops, an error
Loading. Please wait.

April Winds Chords

106 views 3 this week
no commentswrite comment
1 2 3 4 5
3 more votes to show rating
add to favorites
launch autoscroll
font size
0
reset
transpose
0
reset
simplify chords
display chords
guitar tuner
Autoscroll
slow
fast
+/-
esc
set tempo
stop
Help us to improve Ultimate-Guitar.com Take our survey!
×
Author
Difficulty
novice
Joe Brooks - April Winds

Standard Tuning + No Capo


Chords Used: G     : 320033
             D/F#  : 200233 
             Em    : 022000
             C     : x32010
             Am    : x02210            

[Intro]

G - D/F# -  Em -  C

e|--------------------------------------|
B|--3--3----------3--3------------------|
G|--------4---2-4-------4----2-4-5--4---|
D|--------------------------------------|
A|--------------------------------------|
E|--------------------------------------|

e|--------------------------------------|
B|--------------------------------------|
G|--4-2-0-----4-2-0---------------------|
D|--------4---------0-------------------|
A|--------------------------------------|
E|--------------------------------------|


[Verse 1]

        G                           D/F#
Did you ever think the sun could turn cold
       Em                            C                    
Do you ever miss the freedom of the sand between your toes
        G   
I was standing at your way???
           D/F#
She threw in a side to change
       Em
Put a kite into the air
          C               D
Should you ever feel alone


[Chorus]

                 G
Meet me in the April winds
                  D/F#
Meet me when the sun goes down
                    Em
When your smile is wearing thin
                          C
And your heart has all but hit the ground
          Am               C              D 
There is happiness at the end of this string
             Am         C                  G
So bring the ocean as I bring the April winds


e|--10-10-7---5-7---10-10-7---5-7-8--7--|
B|--------------------------------------|
G|--------------------------------------|
D|--------------------------------------|
A|--------------------------------------|
E|--------------------------------------|

e|--7-5-3-1---7-5-3---------------------|
B|------------------3-------------------|
G|--------------------------------------|
D|--------------------------------------|
A|--------------------------------------|
E|--------------------------------------|


[Verse 2]

   G                            D/F#
I never meant to let go of your hands
         Em                                 C
But It's hard to face the weather and now a calm awaited man
     G
So trust me when I say
       D/F#
All the parts of us will change
      Em
The storms they hit so hard
       C               D
But the heart of us remains


[Chorus]

                    G
So meet me in the April winds
                  D/F#
Meet me when the sun goes down
                    Em
When your smile is wearing thin
                          C
And your heart has all but hit the ground
           Am              C              D 
There are promises at the end of this string
              Am         C                  G
So bring your ocean as I bring the April winds


[Bridge]

           C                           D
And I will hold you wrapped inside my fingers
      C                                D
Even though you may not feel their tenderness
      C             G                D7        C
I'll stand by your ground should you ever come down
                            Am
I will be to raise you up again
      C                           (G)
I will be waiting in the April winds


e|--10-10-7---5-7---10-10-7---5-7-8--7--|
B|--------------------------------------|
G|--------------------------------------|
D|--------------------------------------|
A|--------------------------------------|
E|--------------------------------------|

e|--7-5-3-1---7-5-3---------------------|
B|------------------3-------------------|
G|--------------------------------------|
D|--------------------------------------|
A|--------------------------------------|
E|--------------------------------------|
Suggest correction
Give kudos to tab author, rate the tab!
1 2 3 4 5
comments
print report bad tab
guest
You may want to rate the tab now too:
select rating
Wanna post a correction for this tab? Suggest correction