Oops, an error
Loading. Please wait.

With A Little Help From My Friends Bass Tab

version 1
version 1

Live

Whole song

Interactive

26,455 views 36 this week
1 commentread comment
1 2 3 4 5
x 7
add to favorites
launch autoscroll
font size
0
reset
guitar tuner
Autoscroll
slow
fast
+/-
esc
set tempo
stop
Help us to improve Ultimate-Guitar.com Take our survey!
×
Author
Difficulty
intermediate
Artist: Joe Cocker
Song: With a Little Help From My Friends
Album: Woodstock (Live)


Intro:
G|-----------------|-----------------|-----------------|-----------------|
D|7-77--7----------|--7-5---7v-------|575------7-5-----|7v------5--------|
A|-----7-7--0------|0----7----7-0----|------0-0----7---|--7-0--7-7-0-----|
E|-----------------|-----------------|-----------------|-----------------|
v=vibrato

G|-----------------|-----------------|---------------------|-----------------|
D|-----75----------|----757----------|---7-----------757---|--777-555--------|
A|0-57----0h1h2----|0-0------7--0----|0-7-7-0-------0----7-|0---------777----|
E|-----------------|-----------------|--------0h1h2--------|-----------------|

G|--------------------|-----------------|
D|---7-7-----7-7------|---7-------------|
A|0-0-7-7-0-0-7--5h6-0|0-7--70-70-------|
E|--------------------|-----------------|

Verse:                            What would you do...
G|-----------------|-----------------|------4-6h7------|------------------|
D|--7---7---7---7--|--7---7---7---7--|6--4-------------|--9-----9-7------7|
A|7---7---7---7----|7-------7---7----|--2--2-----------|7--7---------7-79-|
E|-----------------|-----------------|-----------------|------------------|

Lend me your ears...                 I get by (Chorus)...
G|-----------4-6h7-|-----------------|---9-------------|-----------------|
D|7--6--2-4--------|---9--9-7--7b----|7-7-7------0-----|----7----7-------|
A|--7--------------|7---7------------|------9--7-------|0-0-----5--5-----|
E|-----------------|-----------------|-----------------|-----5-7---------|
   
G|---9-------------|-----------------|---9-------------|------------------|
D|7---7------0-----|-7----7------7---|7-7-7-------0----|----7-----7-------|
A|--0---9--7-------|0-7-0---7-0-7-7--|------9---7------|0-0------5--5-----|
E|-----------------|-----------------|-----------------|------5-7---------|

                   What do I do... (Verse)
G|---9-------------|-----------------4|6h7--------------|-----------------|
D|7-7--7-----------|--7---7--6---4----|---7--9--0-7-----|0--7-------------|
A|------10-9-7--0--|7-------7--2---2--|----7--7---------|----5--5-7-0-----|
E|-----------------|------------------|-----------------|-----------------|
 
How do I feel...
G|----------------4|6h7--------------|-----------------|
D|--7--6-----4-----|---7--9--9-7-----|---7-----7-------|
A|0------2------2--|----7--7---------|0-7-7-0-7-7--0---|
E|-----------------|-----------------|-----------------|

Repeat Chorus x1

Pre-Verse 2         Do you need anybody? (Verse 2)
G|-----------------|-----------------|-----------------|------------------|
D|-----------------|-----------------|-----------------|------------------|
A|0-3b----0---0-4-7|9--7--9--7-----7-|97---------------|---R-E-S-T---0-4-7|
E|-----------------|--9-9---9-9-2-9-9|---97--0-1-2--5\-|------------------|

Could it be anybody?
G|-----------------|-----------------|-----------------|------------------|
D|-----------------|-----------------|---2-------------|-----------------2|
A|9--7-9------7----|---7-97----------|-------2h4p2-----|-----2h4-----2h4--|
E|-9--9---7-9----0-|7-9----97-0-2-3--|0-0-0-4------0---|0/4-------0/4-----|

G|----4-6----------|-----------------|
D|4/6--------------|-----------------|
A|-----------------|4\---------------|
E|--------0-0-0-0-0|-----------------|

Repeat Chorus x1
Repeat Verse x1
Repeat Chorus x1
Repeat Pre-Verse 2 and Verse 2 x1
Repeat Chorus x1

Pre-Solo:
G|-----------------|-7-7-------------|-7-----7---------|-----7-----7--11\-|
D|-7---------------|5-4-4----7-----7-|5-5-0/4-4----7--7|7-7-5-5-0/4-4-----|
A|0----------------|------0/4--0-0--0|----------0/4-00-|------------------|
E|-----------------|-----------------|-----------------|------------------|
                                                       Outro:
G|-------76--------|-12-11-9----------9----------------|------------------|
D|---7-----7-------|--------12--11h12---11-7-777-777---|777-777-777-777---|
A|0/4-0-----7-0----|------------------------7---7---7--|---7---7---7---7--|
E|-----------------|-----------------------------------|------------------|

Repeat outro until end of song
Suggest correction
comments
print report bad tab
1 comment total.
0 reply
underpantshead 10 Nov 22, 2009 07:03 PM

Pretty sure this is played a semitone higher...

guest
You may want to rate the tab now too:
select rating
Wanna post a correction for this tab? Suggest correction