Oops, an error
Loading. Please wait.

Lonely Man Tab

version 1
version 1

Whole song

2,590 views 27 this week
no commentswrite comment
1 2 3 4 5
please rate
add to favorites
launch autoscroll
font size
0
reset
how to read this tab
guitar tuner
Autoscroll
slow
fast
+/-
esc
set tempo
stop
Help us to improve Ultimate-Guitar.com Take our survey!
×
Author
Difficulty
intermediate
-------------------------------------------------------------------------------
                             The Incredible Hulk - The lonely man
-------------------------------------------------------------------------------

Tabbed by: Tritoch21, based on the tab by MolesGuitar

E-mail: anderzolzzon@hotmail.com

Tuning: Standard


e|------------1---0---3---1---0---1----------1---0---1-----------------------|
B|---------------------------------------------------------------------------|
G|-------2-------------------------------2-----------------------------------|
D|---0-------------------------------0-------------------------3----2--------|
A|----------------------------0---------------------------0------------------|
E|---------------------------------------------------------------------------|



e|-----------1---0---3---1----0---1------------------------------------------|
B|-------------------------------------3-----2-------------------------------|
G|-------2-----------------------------1-----0-------------------------------|
D|---0---------------------------------3-----2-------------------------------|
A|----------------------------0--------1-----0-------------------------------|
E|---------------------------------------------------------------------------|



e|------1---0---1--------------------------1----0----------------------------|
B|----------------------------------------------------6----------------------|
G|--2---------------------------------2--------------------------------------|
D|--------------0--------3---2---3-----------------------------3---2---3-----|
A|-------------------0--------------------------------4----------------------|
E|---------------------------------------------------------5-----------------|


e|-------------------3-----------------------1---0---1-----------------------|
B|--------6----5--------------------------------------------------3---1---3--|
G|---2---------------------------------------------------2-------------------|
D|-------------------------7----3---2---3---------------------3--------------|
A|-------------------3-----------------------------------1-------------------|
E|---------------------------------------------------------------------------|


e|---5---4---3-----------------3----5----11----10----8--------10-------------|
B|-----------3------------1--------------------------------------------------|
G|---3----------------0------------------------------0-------------7----10---|
D|----------------1--------------------------------------0-----9-------10----|
A|-----------0---------------------------------------------------------------|
E|---------------------------------------------------------------------------|


e|---5----6---------------0---------------2----------------3-----------------|
B|---4--------------------3--------------------------------3-----------------|
G|---2------------2---3-------3---2---------------2----3---------------------|
D|------------0-----------------------0-------0------------------------------|
A|---------------------------------------------------------------------------|
E|--------3-------------------------------3----------------3-----------------|





e|------6---5---6-----------------------6---5---6--------8-------------------|
B|---------------------------------------------------------------------------|
G|--7-----------0-------0-----------7----------------0-------0---------------|
D|------------------0------7----8--------------------------------------------|
A|------------------------------8---------------7----------------------------|
E|---------------------------------------------------------------8-----------|



e|---------------------------------------------------6-----------------------|
B|--------10--------------------------10----8----6---------------------------|
G|------------------------------------10----9----7---------------------------|
D|---10---10-----------10---7----10--------------0---------------------------|
A|--------9--------9--------7------------------------------------------------|
E|-------------9-------------------------------------------------------------|




e|---------------------------------------------------------3-----------------|
B|-------11---10---8--------8----6----8---------8-----6----4--------------4--|
G|-------10-------------------------------------8-----7----------------------|
D|---8--------8---------8-------------0-----8-------------------5-----6------|
A|-----------------6---------------------------------------3-----------------|
E|---------------------------------------------------------------------------|

e|---6-----4-----3----------------5-----5---------------------1-----0----1---|
B|----------------------7----6---------------6------3------------------------|
G|---------------------------5----------------------------2------------------|
D|--------------------------------------------------0------------------------|
A|---------------------------0-----------------------------------------------|
E|---------------------------------------------------------------------------|

e|------------------------------------------10-------------------------------|
B|--------3---------------------------------10-------------------------------|
G|---2--------------------------------------10-------------------------------|
D|--------0----------3----2----3------------0--------------------------------|
A|--------------0--------------------0---------------------------------------|
E|---------------------------------------------------------------------------|
Suggest correction
What's this?
You can suggest a correction to this tab. Community and Mods will review your correction and vote to approve or reject it.
comments
We did not receive enough feedback on this tab! Please rate:
print report bad tab
1 2 3 4 5
guest
You may want to rate the tab now too:
select rating
Please do not post tabs as comments. Select "correction" instead!