Oops, an error
Loading. Please wait.

Blue Bossa bass

version 1
version 1

Whole song

Interactive

619 views 6 this week
no commentswrite comment
1 2 3 4 5
3 more votes to show rating
add to favorites
×
Save as Personal and add changes to this tab that will be seen only by you. Learn more ›
×
You can save this tab as Personal to edit and correct it or add notes. All changes will be seen only by you. Learn more »
launch autoscroll
font size
0
reset
guitar tuner
edit
Autoscroll
slow
fast
+/-
esc
set tempo
stop
Author
Blue Bossa
Joe Henderson


[Intro]

    Cm7
G|---------7-5-----|-----------------|---------7-5-----|---------7-------|
D|-------5-------5-|(5)----5-0---5---|-------5-------5-|(5)----5-----5---|
A|-3---6-----------|-----------------|-3---6-----------|-----------------|
E|-----------------|-----------------|-----------------|-----------------|

    Cm7
G|---------7-5-----|---------7---0---|---------7-5-----|---------7---0---|
D|-------5-------5-|(5)--------------|-------5-------5-|(5)--------------|
A|-3---6-----------|-----------------|-3---6-----------|-----------------|
E|-----------------|-----------------|-----------------|-----------------|


[Head 1]

  Cm7                                 Fm7              (Bb7)
G|---------7-5-----|----------7--0---|-----------------|-------3-3---3---|
D|-------5-------5-|(5)----5---------|---------5-3-----|-----------------|
A|-3---6-----------|-----------------|---------------1-|(1)--------------|
E|-----------------|-----------------|-1---3-4---------|-----------------|

  Dm7b5             G7                Cm7
G|---------9-7-----|---------7-------|---------7-5-----|----------7------|
D|-------7-------5-|(5)----5-----5---|-------5-------5-|(5)----5-----5---|
A|-5---8-----------|-----------------|-3---6-----------|-----------------|
E|-----------------|-----------------|-----------------|-----------------|

  Ebm7              Ab7               Dbmaj7
G|--------10-8-----|-----------------|-------6-8-6---6-|(6)----8-6---8---|
D|-------8-------6-|(6)----6-----6---|-----6-----------|-----------------|
A|-6---9-----------|---------6-------|-4---------------|-----------------|
E|-----------------|-----------------|-----------------|-----------------|

  Dm7b5             G7                Cm7
G|---------9-7-----|---------7-------|---------7-5---0-|---0-----12------|
D|---------------5-|(5)----5-----5---|-------5---------|-----12------12--|
A|-5---8-----------|-----------------|-3---6-----------|-----------------|
E|-----------------|-----------------|-----------------|-----------------|

  Cm7                                 Fm7              (Bb7)
G|---------7-5---0-|(0)----12--------|-----------------|-------3-3---3---|
D|-------5---------|---------12------|---------5-------|-----------------|
A|-3---6-----------|-------------10--|-----------3---1-|(1)--------------|
E|-----------------|-----------------|-1---3-4---------|-----------------|

  Dm7b5             G7                Cm7
G|---------9-7---0-|(0)----12--------|---------7-5---0-|(0)----12--------|
D|-------7---------|---------12------|-------5---------|---------12------|
A|-5---8-----------|-------------10--|-3---6-----------|-------------10--|
E|-----------------|-----------------|-----------------|-----------------|

  Ebm7              Ab7               Dbmaj7
G|--------10-8-----|-----------------|-------6-8-6---6-|(6)----8-6---8---|
D|-------8-------6-|(6)----6-----6---|-----6-----------|-----------------|
A|-6---9-----------|---------6-------|-4---------------|-----------------|
E|-----------------|-----------------|-----------------|-----------------|

  Dm7b5             G7                Cm7
G|---------9-7-----|---------7-------|---------7-5-----|---------7---0---|
D|---------------5-|(5)----5-----5---|-------5-------5-|(5)----5---------|
A|-5---8-----------|-----------------|-3---6-----------|-----------------|
E|-----------------|-----------------|-----------------|-----------------|


[Trumpet Solo]

  Cm7                                 Fm7              (Bb7)
G|---------7-5-----|-------7-5-------|-----------------|-------3-3---3---|
D|-------5-------5-|(5)----------5---|---------5-3-----|-----------------|
A|-3---6-----------|-----------------|---------------1-|(1)--------------|
E|-----------------|-----------------|-1---3-4---------|-----------------|

  Dm7b5             G7                Cm7
G|---------9-7-----|---------7-------|---------7-5-----|---------7-------|
D|-------7-------5-|(5)----5-----5---|-------5-------5-|(5)----5-----5---|
A|-5---8-----------|-----------------|-3---6-----------|-----------------|
E|-----------------|-----------------|-----------------|-----------------|

  Ebm7              Ab7               Dbmaj7
G|--------10-8--13-|(13)--13-13--13--|-------------6---|-------------6---|
D|-------8---------|-----------------|---------6-------|----------6------|
A|-6---9-----------|-----------------|-------4---------|--------4--------|
E|-----------------|-----------------|-----------------|-----------------|

  Dm7b5             G7                Cm7
G|-----------------|---------7-------|---------7-5-----|----------7------|
D|---------7-------|-------5-----5---|-------5-------5-|-5-----5-----5---|
A|-------8-----5---|(5)--------------|-3---6-----------|-----------------|
E|-----------------|-----------------|-----------------|-----------------|

  Cm7                                 Fm7              (Bb7)
G|---------7-5-----|---------7-------|-----------------|-------3-3---3---|
D|-------5-------5-|(5)----5-----5---|---------5-3-----|-----------------|
A|-3---6-----------|-----------------|---------------1-|(1)--------------|
E|-----------------|-----------------|-1---3-4---------|-----------------|

  Dm7b5             G7                Cm7
G|---------9-7-----|---------7-------|---------7-5-----|---------7-------|
D|-------7-------5-|(5)----5-----5---|-------5-------5-|(5)----5-----5---|
A|-5---8-----------|-----------------|-3---6-----------|-----------------|
E|-----------------|-----------------|-----------------|-----------------|

  Ebm7              Ab7               Dbmaj7
G|--------10-8-----|-----------------|-------6-8-6---6-|(6)----8-6---8---|
D|-------8-----6---|(6)----6-----6---|-----6-----------|-----------------|
A|-6---9-----------|---------6-------|-4---------------|-----------------|
E|-----------------|-----------------|-----------------|-----------------|

  Dm7b5             G7                Cm7
G|---------9-7-----|---------7-------|---------7-5-----|---------7-------|
D|-------7-------5-|(5)----5-----5---|-------5-------5-|(5)----5-----5---|
A|-5---8-----------|-----------------|-3---6-----------|-----------------|
E|-----------------|-----------------|-----------------|-----------------|

  Cm7                                 Fm7              (Bb7)
G|---------7-5-----|---------7-------|-----------------|-------3-3---3---|
D|-------5-------5-|(5)----5-----5---|---------5-3-----|-----------------|
A|-3---6-----------|-----------------|---------------1-|(1)--------------|
E|-----------------|-----------------|-1---3-4---------|-----------------|

  Dm7b5             G7                Cm7
G|---------9-7-----|---------7-------|---------7-5-----|------12-12--12--|
D|-------7-------5-|(5)----5-----5---|-------5-------5-|(5)--------------|
A|-5---8-----------|-----------------|-3---6-----------|-----------------|
E|-----------------|-----------------|-----------------|-----------------|

  Ebm7              Ab7               Dbmaj7
G|--------10-8-----|-----------------|-------6-8-6-----|-------8-6---8---|
D|-------8-------6-|(6)----6-----6---|-----6-----------|-----------------|
A|-6---9-----------|---------6-------|-4-------------4-|(4)--------------|
E|-----------------|-----------------|-----------------|-----------------|

  Dm7b5             G7                Cm7
G|---------9-7-----|---------7-------|---------7-5-----|---------7-------|
D|-------7-------5-|(5)----5-----5---|-------5-------5-|-5-----5-----5---|
A|-5---8-----------|-----------------|-3---6-----------|-----------------|
E|-----------------|-----------------|-----------------|-----------------|

  Cm7                                 Fm7              (Bb7)
G|-----------3-----|-------3-3-------|---------5-5-----|-------5-5---5---|
D|-------------5---|-------------5---|-3-------------3-|(3)--------------|
A|-3-------------3-|-----------------|-----------------|-----------------|
E|-----------------|-----------------|-----------------|-----------------|

  Dm7b5             G7                Cm7
G|---------9-7-----|-----------------|-----------3-----|-------3-3-------|
D|---------------5-|(5)----5-----5---|-------------5---|-------------5---|
A|-5---------------|---------5-------|-3-------------3-|-----------------|
E|-----------------|-----------------|-----------------|-----------------|

  Ebm7              Ab7               Dbmaj7
G|--------10-8-----|-----------------|-------6-8-6-----|-------6-6---6---|
D|-------8-----6---|(6)----6-6---6---|-----6-----------|-----------------|
A|-6---9-----------|-----------------|-4-------------4-|(4)--------------|
E|-----------------|-----------------|-----------------|-----------------|

  Dm7b5             G7                Cm7
G|-----------------|-----------------|-----------3-----|-------3-3-------|
D|-----------6-3-5-|(5)----5-----5---|-------------5---|-------------5---|
A|-5---------------|---------5-------|-3-------------3-|-----------------|
E|-----------------|-----------------|-----------------|-----------------|


[Sax Solo]

  Cm7                                 Fm7              (Bb7)
G|-----------3-----|-------3-3-------|-----------5-5---|-------5-5-------|
D|-------------5---|-------------5---|-3-------------3-|(3)----------3---|
A|-3-------------3-|(3)--------------|-----------------|-----------------|
E|-----------------|-----------------|-----------------|-----------------|

  Dm7b5             G7                Cm7
G|-----------------|-----------------|-----------3-----|-------3-3-------|
D|-----------3-3---|---------5-5-----|-------------5---|-------------5---|
A|-5-------------5-|(5)--------------|-3-------------3-|(3)--------------|
E|-----------------|-----------------|-----------------|-----------------|

  Ebm7              Ab7               Dbmaj7
G|----------10-8---|-----------------|-----------6-6---|-------6-6-------|
D|---------------6-|(6)----6-----6---|-----------------|-----------------|
A|-6---------------|---------6-------|-4---------------|-4-----------4---|
E|-----------------|-----------------|-----------------|-----------------|

  Dm7b5             G7                Cm7
G|-----------------|---------7-------|-----------3-----|-------3-3-------|
D|-----------7-3-5-|(5)----5-----5---|-------------5---|-------------5---|
A|-5---------------|-----------------|-3-------------3-|(3)--------------|
E|-----------------|-----------------|-----------------|-----------------|

  Cm7                                 Fm7              (Bb7)
G|-----------3-----|-------3-3-------|-----------5-5---|-------5-5-------|
D|-------------5---|-------------5---|-3-------------3-|(3)----------3---|
A|-3-------------3-|(3)--------------|-----------------|-----------------|
E|-----------------|-----------------|-----------------|-----------------|

  Dm7b5             G7                Cm7
G|-----------------|-----------------|-----------3-----|-------3-3-------|
D|-----------7-3-5-|(5)----5-----5---|-------------5---|-------------5---|
A|-5---------------|---------5-------|-3-------------3-|(3)--------------|
E|-----------------|-----------------|-----------------|-----------------|

  Ebm7              Ab7               Dbmaj7
G|----------10-8---|-----------------|-----------3-6---|-------6-6-------|
D|---------------6-|(6)----6-----6---|---------------6-|(6)--------------|
A|-6---------------|---------6-------|-4---------------|-------------4---|
E|-----------------|-----------------|-----------------|-----------------|

  Dm7b5             G7                Cm7
G|----------10-----|-----------------|---------7-7---5-|(12)12--12-------|
D|---------------5-|(5)----5-----5---|-------5---------|------12------12-|
A|-5-----------5---|---------5-------|-3---6-----------|-----------------|
E|-----------------|-----------------|-----------------|-----------------|

  Cm7                                 Fm7              (Bb7)
G|-------7---5-----|-------7---5-----|-----------5---5-|-------5-----5---|
D|-----5-------5---|-----5-------5---|-3-----------3---|---------3-------|
A|-3---------------|-3---------------|-----------------|-----------------|
E|-----------------|-----------------|-----------------|-----------------|

  Dm7b5             G7                Cm7
G|----------12-----|-----------------|-----------3-----|-------3-3-------|
D|---------------5-|(5)----5-----5---|-------------5---|-------------5---|
A|-------------5---|---------5-------|-3-------------3-|(3)--------------|
E|-10--------------|-----------------|-----------------|-----------------|

  Ebm7              Ab7               Dbmaj7
G|----------10-8---|-----------------|-------------6---|-------6-6-------|
D|---------------6-|(6)----6-----6---|-----------6-----|-----------------|
A|-6---------------|---------6-------|-4---------------|-4-----------4---|
E|-----------------|-----------------|-----------------|-----------------|

  Dm7b5             G7                Cm7
G|----------10-----|-----------------|-----------3-----|-------3-3-------|
D|---------------5-|(5)----5-----5---|-------------5---|-------------5---|
A|-5-----------5---|---------5-------|-3-------------3-|(3)--------------|
E|-----------------|-----------------|-----------------|-----------------|


[Piano Solo]

  Cm7                                 Fm7              (Bb7)
G|---------7-5-----|---------7-------|-----------------|-------3-3---3---|
D|-------5-------5-|(5)----5-----5---|---------5-3-----|-----------------|
A|-3---6-----------|-----------------|---------------1-|(1)--------------|
E|-----------------|-----------------|-1---3-4---------|-----------------|

  Dm7b5             G7                Cm7
G|---------9-7-----|---------7-------|---------7-5-----|---------7-------|
D|-------7-------5-|(5)----5-----5---|-------5-------5-|(5)----5-----5---|
A|-5---8-----------|-----------------|-3---6-----------|-----------------|
E|-----------------|-----------------|-----------------|-----------------|

  Ebm7              Ab7               Dbmaj7
G|--------10-8-----|-----------------|-------6-8-6-----|-------6-6---6---|
D|-------8-------6-|(6)----6-----6---|-----6-----------|-----------------|
A|-6---9-----------|---------6-------|-4-------------4-|(4)--------------|
E|-----------------|-----------------|-----------------|-----------------|

  Dm7b5             G7                Cm7
G|---------9-7-----|------12-12------|---------7-5---0-|--12-0---0-12-0---|
D|-------7-------5-|(5)---------12---|-------5---------|-------7--------7-|
A|-5---8-----------|-----------------|-3---6-----------|------------------|
E|-----------------|-----------------|-----------------|------------------|

  Cm7                                 Fm7              (Bb7)
G|-----------7-7---|-----------------|-----------5-5---|-------5-5-------|
D|---------------5-|(5)----5-----5---|-3-------------3-|(3)----------3---|
A|-3---------------|---------5-------|-----------------|-----------------|
E|-----------------|-----------------|-----------------|-----------------|

  Dm7b5             G7                Cm7
G|-----------------|-----------------|-----------3-----|-------3-3-------|
D|-----------6-3-5-|(5)----5---5-----|-------------5---|-------------5---|
A|-5---------------|---------5-------|-3-------------3-|(3)--------------|
E|-----------------|-----------------|-----------------|-----------------|

  Ebm7              Ab7               Dbmaj7
G|----------10-8---|-----------------|-----------6-6---|-------6-6-------|
D|---------------6-|(6)----6-----6---|-----------------|-----------------|
A|-6---------------|---------6-------|-4-------------4-|(4)----------4---|
E|-----------------|-----------------|-----------------|-----------------|

  Dm7b5             G7                Cm7
G|-----------------|-----------------|-----------3-----|-------3-3-------|
D|-----------6-3-5-|(5)----5-----5---|-------------5---|-------------5---|
A|-5---------------|---------5-------|-3-------------3-|(3)--------------|
E|-----------------|-----------------|-----------------|-----------------|

  Cm7                                 Fm7              (Bb7)
G|-----------3-----|-------3-3-------|-----------5-5---|-------5-5---5---|
D|-------------5---|-------------5---|-3-------------3-|(3)--------------|
A|-3-------------3-|(3)--------------|-----------------|-----------------|
E|-----------------|-----------------|-----------------|-----------------|

  Dm7b5             G7                Cm7
G|----------10-----|---------7-------|-----------3-----|-------3-3-------|
D|---------------5-|(5)----5-----5---|-------------5---|-------------5---|
A|-5-----------5---|-----------------|-3-------------3-|(3)--------------|
E|-----------------|-----------------|-----------------|-----------------|

  Ebm7              Ab7               Dbmaj7
G|----------10-8---|-----------------|-----------6-6---|-------6-6-------|
D|---------------6-|(6)----6-----6---|-----------------|-----------------|
A|-6---------------|---------6-------|-4-------------4-|(4)----------4---|
E|-----------------|-----------------|-----------------|-----------------|

  Dm7b5             G7                Cm7
G|----------10-----|----12-----------|-----------3-----|-------3-3-------|
D|-------------0---|-----------------|-------------5---|-------------5---|
A|-5---------------|-10---10--10-10--|-3-------------3-|(3)--------------|
E|-----------------|-----------------|-----------------|-----------------|

  Cm7                                 Fm7              (Bb7)
G|-----------3-----|-------3-3-------|-----------5-5---|-------5-5-------|
D|-------------5---|-------------5---|-3---------------|-------------3---|
A|-3-------------3-|(3)--------------|-----------------|-3---------------|
E|-----------------|-----------------|-----------------|-----------------|

  Dm7b5             G7                Cm7
G|-----------------|---------12------|-----------3-----|-------3-3-------|
D|-----------6-0---|-----------------|-------------5---|-------------5---|
A|-5---------------|-10-10-10----12--|-3-------------3-|(3)--------------|
E|-----------------|-----------------|-----------------|-----------------|

  Ebm7              Ab7               Dbmaj7
G|----------10-8-13|(13)--13-13--13--|----13----13-13-13-|----13----13-13-13-|
D|-----------------|-----------------|-11----------------|-11----------------|
A|-6---------------|-----------------|-------11----------|-------11----------|
E|-----------------|-----------------|-------------------|-------------------|

  Dm7b5             G7                Cm7
G|-----------------|------12---------|---------7-5-----|---12------------|
D|-----7-6---6-6-6-|-5------12-------|-------5-------5-|(5)----12--------|
A|-5---------------|------------10---|-3---6-----------|---------10--5---|
E|-----------------|-----------------|-----------------|-----------------|


[Bass Solo]

  Cm7                                 Fm7              (Bb7)
G|---------8-7-----|-----------------|-------5-5-------|---5-5-------5---|
D|-------5-------5-|(5)----5-0---5---|-3---------------|---------3-------|
A|-3---6-----------|-----------------|-------------3---|-----------------|
E|-----------------|-----------------|-----------------|-----------------|

  Dm7b5             G7                Cm7
G|-----------------|-----------------|-----------3-----|-------3-3-------|
D|-------7-7-------|-5-----5-5-5-5---|-------------5---|-------------5---|
A|-5-----------5---|-----------------|-3-------------3-|(3)--------------|
E|-----------------|-----------------|-----------------|-----------------|

  Ebm7              Ab7               Dbmaj7
G|--------10-8-----|-----------------|-------6-8-6-----|---6-----6-------|
D|-------8-------6-|(6)----6-6---6---|-----6-----------|-----------------|
A|-6---9-----------|-----------------|-4-------------4-|(4)----4-----4---|
E|-----------------|-----------------|-----------------|-----------------|

  Dm7b5             G7                Cm7
G|----10----10-----|-0---12------0---|-----12------0---|-----12----------|
D|-0-----0-0---0---|-----------------|-----------------|---------12------|
A|-----------------|-----------------|-----------------|-------------10--|
E|-----------------|-----------------|-----------------|-----------------|


[Head 2]

  Cm7                                 Fm7              (Bb7)
G|---------7-5---12|(12)--12-12------|-----------------|-----------------|
D|-------5---------|-----------------|------10-10------|--10-10-----10---|
A|-3---6-----------|-------------10--|-8---------------|---------8-------|
E|-----------------|-----------------|-------------8---|(8)--------------|

  Dm7b5             G7                Cm7
G|---------9-7-----|--------12-------|-----------3-----|-------3-3-------|
D|-------7-------5-|(5)---12----12---|-------------5---|-------------5---|
A|-5---8-----------|-----------------|-3-------------3-|(3)--------------|
E|-----------------|-----------------|-----------------|-----------------|

  Ebm7              Ab7               Dbmaj7
G|--------10-8--13-|(13)--13-13--13--|-----13---13-13-13-|-----13---13-13-13-|
D|-------8---------|-----------------|-11----------------|-11----------------|
A|-6---9-----------|-----------------|-------11----------|-------11----------|
E|-----------------|-----------------|-------------------|-------------------|

  Dm7b5             G7                Cm7
G|---------9-7-----|---------7-------|-----------3-----|-------3-3-------|
D|-------7-------5-|(5)----5-----5---|-------------5---|-------------5---|
A|-5---8-----------|-----------------|-3-------------3-|(3)--------------|
E|-----------------|-----------------|-----------------|-----------------|

  Cm7                                 Fm7              (Bb7)
G|---------7-5-----|---------7-------|-----5-----5-5-5-|-----5-----5-5-5-|
D|-------5-------5-|(5)----5-----5---|-3---------------|-3---------------|
A|-3---6-----------|-----------------|-------3---------|-------3---------|
E|-----------------|-----------------|-----------------|-----------------|

  Dm7b5             G7                Cm7
G|---------9-7-----|---------7-------|-----------3-----|-------3-3-------|
D|-------7-------5-|(5)----5-----5---|-------------5---|-------------5---|
A|-5---8-----------|-----------------|-3-------------3-|(3)--------------|
E|-----------------|-----------------|-----------------|-----------------|

  Ebm7              Ab7               Dbmaj7
G|--------10-8-----|-----------------|-------6-8-6-----|-------6-6---6---|
D|-------8-------6-|(6)----6-----6---|-----6-----------|-----------------|
A|-6---9-----------|---------6-------|-4-------------4-|(4)--------------|
E|-----------------|-----------------|-----------------|-----------------|

  Dm7b5             G7                Cm7
G|---------9-7-----|---------7-------|---------7-5---3-|(3)----3-----3---|
D|-------7-------5-|(5)----5-----5---|-------5---------|---5-----5-------|
A|-5---8-----------|-----------------|-3---6-----------|-----------------|
E|-----------------|-----------------|-----------------|-----------------|


[Bass Solo 2]

  Cm7                                 Fm7              (Bb7)
G|---------7-5---0-|(0)0-12-0-12--0---|-----5-----5-5-5-|-5---10--10--10--|
D|-------5---------|------------------|-3---------------|-----------------|
A|-3---6-----------|------------------|-------3---------|-----------------|
E|-----------------|------------------|-----------------|-----------------|

  Dm7b5             G7                Cm7
G|---------9-7---0-|(0)--12-12-------|-----------3-----|-------3-3-------|
D|-------7---------|-----------------|-------------5---|-------------5---|
A|-5---8-----------|-----------------|-3-------------3-|(3)--------------|
E|-----------------|-----------------|-----------------|-----------------|

  Ebm7              Ab7                   Dbmaj7
G|--------10-8-----|------13-13-13-13-13-|-----13---13--13-|(13)--13----13---|
D|-------8---------|---------------------|-11--------------|--------11-------|
A|-6---9--------11-|(11)-----------------|-------11--------|-----------------|
E|-----------------|---------------------|-----------------|-----------------|

  Dm7b5             G7                Cm7
G|---------------9-|-7-------0---12--|-----------3-----|-------3-3-------|
D|-----------7-----|-----------------|-------------5---|-------------5---|
A|-5-----8---------|-----5-----------|-3-------------3-|(3)--------------|
E|-----------------|-----------------|-----------------|-----------------|


[Head 3]

  Cm7                                 Fm7              (Bb7)
G|-----------5-3---|-------3---------|-----------5-----|-------3-3-------|
D|---------------5-|---------5-------|-3-------------3-|(3)--------------|
A|-3---------------|-3-----------3---|-------------3---|-------------3---|
E|-----------------|-----------------|-----------------|-----------------|

  Dm7b5             G7                Cm7
G|---------9-7-----|---------7-------|---------5-5-----|---------7-------|
D|-------7-------5-|(5)----5-----5---|-------5-------5-|(5)----5-----5---|
A|-5---8-----------|-----------------|-3---6-----------|-----------------|
E|-----------------|-----------------|-----------------|-----------------|

  Ebm7              Ab7               Dbmaj7
G|--------10-8-----|-----------------|-------6-8-6-----|-------6-6---6---|
D|-------8-------6-|(6)----6-----6---|-----6-----------|-----------------|
A|-6---9-----------|---------6-------|-4-------------4-|(4)--------------|
E|-----------------|-----------------|-----------------|-----------------|

  Dm7b5             G7                Cm7
G|---------9-7-----|---------7-------|---------7-5-----|---------7-------|
D|---------------5-|(5)----5-----5---|-------5-------5-|(5)----5-----5---|
A|-5---8-----------|-----------------|-3---6-----------|-----------------|
E|-----------------|-----------------|-----------------|-----------------|

  Cm7                                 Fm7              (Bb7)
G|---------7-5---0-|(0)------12------|-----------------|-------3-3---3---|
D|-------5---------|-------12--------|-3-------3-3-----|-----------------|
A|-3---6-----------|-------------10--|---------------1-|(1)--------------|
E|-----------------|-----------------|-----3-4---------|-----------------|

  Dm7b5             G7                Cm7
G|---------9-7-----|---------7-------|---------5-5-----|---------7-------|
D|-------7-------5-|(5)----5-----5---|-------5-------5-|(5)----5-----5---|
A|-5---8-----------|-----------------|-3---6-----------|-----------------|
E|-----------------|-----------------|-----------------|-----------------|

  Ebm7              Ab7               Dbmaj7
G|--------10-8-----|-----------------|-------6-8-6-----|-----------------|
D|-------7-------6-|(6)----6-----6---|-----6---------6-|(6)----6-6-------|
A|-6---9-----------|---------6-------|-4---------------|-------------4---|
E|-----------------|-----------------|-----------------|-----------------|

  Dm7b5             G7                Cm7
G|---------9-7-----|---------7-------|---------7-5-----|---------7-------|
D|-------7-------5-|(5)----5-----5---|-------5-------5-|(5)----5-----5---|
A|-5---8-----------|-----------------|-3---6-----------|-----------------|
E|-----------------|-----------------|-----------------|-----------------|


[Outro]

  Cm7
G||---------7-5-----|---------7-------|---------7-5---3-|(3)------3-------||
D||-------5-------5-|(5)----5-----5---|-------5-----5---|-------5-----5---|| repeat as needed
A||-3---6-----------|-----------------|-3---6-----------|-----------------||
E||-----------------|-----------------|-----------------|-----------------||



************************************

| (n)  Ghost note

************************************

            
            
Suggest correction
Creating personal tab
Creating personal tab
You can edit any tab online and save it as your Personal.

You can edit, replace or remove any tab part or add personal notes – all changes will be seen only by you.

Personal tabs can be accessed anytime from any device, even offline.
Learn more »
Give kudos to tab author, rate the tab!
1 2 3 4 5
comments
print report bad tab
guest
You may want to rate the tab now too:
select rating
Wanna post a correction for this tab? Suggest correction