Oops, an error
Loading. Please wait.

One More Time bass

version 1
version 1

Whole song

Interactive

109 views 1 this week
no commentswrite comment
1 2 3 4 5
2 more votes to show rating
add to favorites
×
Save as Personal and add changes to this tab that will be seen only by you. Learn more ›
×
You can save this tab as Personal to edit and correct it or add notes. All changes will be seen only by you. Learn more »
launch autoscroll
font size
0
reset
guitar tuner
edit
Autoscroll
slow
fast
+/-
esc
set tempo
stop
(Bass Start - 00:10)

[Intro]
(00:10)
G|------|
D|------|
A|-5--5-|
E|------|

G|----------------|--------------|----------------|--------------|
D|-5-5-5-5-5-5-5-5|-5-5-5-5------|-5-5-5-5-5-5-5-5|-5-5-5-5------|
A|----------------|---------5--5-|----------------|---------5--5-|
E|----------------|--------------|----------------|--------------|

G|----------------|--------------|----------------|--------------|
D|-3-3-3-3-3-3-3-3|-3-3-3-3------|-3-3-3-3-3-3-3-3|-3-3-3-3------|
A|----------------|---------3--3-|----------------|---------5--5-|
E|----------------|--------------|----------------|--------------|

[Verse]
G|-----------|-----------|------------|------------|
D|-5---5-----|-3---3-----|---------7--|---------3-4|
A|----------5|-----------|-5---5-----5|-6---6------|
E|-----------|----------5|------------|------------|

G|-----------|------------|------------|------------|
D|-5---5-----|-3---3---/7-|---------7--|------------|
A|----------5|------------|-5---5-----5|-6---6---5-3|
E|-----------|------------|------------|------------|

G|------------|------------|------------|------------|
D|------------|------------|---------7--|---------3-4|
A|---------8--|---------3-4|-5---5-----5|-6---6------|
E|-6---6-----6|-5---5------|------------|------------|

G|-----------|-----------|------------|------------|
D|-5---5-----|-3---3----7|---------7--|------------|
A|----------5|-----------|-5---5-----5|-6---6---5-3|
E|-----------|-----------|------------|------------|

[Pre-Chorus]
G|-----------------------|-----------------------------------|
D|----8------------------|-----------------------------------|
A|---------8-------------|-7-h8-8-8-7-h8-8-8-7-h8-8-8-8-6-5--|
E|-6----------6---6-6---6|----------------------------------8|

G|-----------------------|---------------------------------|
D|----8------------------|-------------------------------3-|
A|---------8-------------|-7-h8-8-8-7-h8-8-8-4-h5-5-5-5----|
E|-6----------6---6-6---6|---------------------------------|

[Chorus]
G|----------------|--------------|----------------|--------------|
D|-5-5-5-5-5-5-5-5|-5-5-5-5------|-5-5-5-5-5-5-5-5|-5-5-5-5------|
A|----------------|---------5--5-|----------------|---------5--5-|
E|----------------|--------------|----------------|--------------|

G|----------------|--------------|----------------|--------------|
D|-3-3-3-3-3-3-3-3|-3-3-3-3------|-3-3-3-3-3-3-3-3|-3-3-3-3------|
A|----------------|---------3--3-|----------------|---------5--5-|
E|----------------|--------------|----------------|--------------|

G|----------------|--------------|----------------|--------------|
D|-5-5-5-5-5-5-5-5|-5-5-5-5------|-5-5-5-5-5-5-5-5|-5-5-5-5------|
A|----------------|---------5--5-|----------------|---------5--5-|
E|----------------|--------------|----------------|--------------|

G|----------------|--------------|----------------|--------------|
D|-3-3-3-3-3-3-3-3|-3-3-3-3------|-3-3-3-3-3-3-3-3|-3-3-3-3------|
A|----------------|---------3--3-|----------------|---------5--5-|
E|----------------|--------------|----------------|--------------|

[Verse]
G|-----------|------------|------------|-----------|
D|-5---5-----|-3---3---/7-|---------7--|---------3-|
A|----------5|------------|-5---5-----5|-6---6-----|
E|-----------|------------|------------|-----------|

G|-------------|-------------|-------------|-----------|
D|-5---5----5--|-3---3--3----|----------x--|---------3-|
A|--------5---5|----------0-3|-5---5--x---x|-6---6-----|
E|-------------|-------------|-------------|-----------|

G|----------------|-------------|------------|------------|
D|--------x-8/10-8|-7---7--7----|---------7--|---------3-4|
A|-----8----------|----------8-6|-5---5-----5|-6---6------|
E|-6--------------|-------------|------------|------------|

G|-------------|------------|------------|-------------|
D|-5---5--5---5|-3---3---/7-|---------7--|-------------|
A|----------5--|------------|-5---5-----5|-6---6---6/8-|
E|-------------|------------|------------|-------------|

[Pre-Chorus]
G|-----------------------|-----------------------------------|
D|----8------------------|-----------------------------------|
A|---------8-------------|-7-h8-8-8-7-h8-8-8-7-h8-8-8-8------|
E|-6----------6---6-6---6|------------------------------0-3-5|

G|-----------------------|---------------------------------|
D|----8------------------|-------------------------------3-|
A|---------8-------------|-7-h8-8-8-7-h8-8-8-4-h5-5-5-5----|
E|-6----------6---6-6---6|---------------------------------|

[Chorus]
G|----------------|--------------|----------------|--------------|
D|-5-5-5-5-5-5-5-5|-5-5-5-5------|-5-5-5-5-5-5-5-5|-5-5-5-5------|
A|----------------|---------5--5-|----------------|---------5--5-|
E|----------------|--------------|----------------|--------------|

G|----------------|--------------|----------------|--------------|
D|-3-3-3-3-3-3-3-3|-3-3-3-3------|-3-3-3-3-3-3-3-3|-3-3-3-3------|
A|----------------|---------3--3-|----------------|---------5--5-|
E|----------------|--------------|----------------|--------------|

G|----------------|--------------|----------------|--------------|
D|-5-5-5-5-5-5-5-5|-5-5-5-5------|-5-5-5-5-5-5-5-5|-5-5-5-5------|
A|----------------|---------5--5-|----------------|---------5--5-|
E|----------------|--------------|----------------|--------------|

G|----------------|--------------|----------------|--------------|
D|-3-3-3-3-3-3-3-3|-3-3-3-3------|-3-3-3-3-3-3-3-3|-3-3-3-3------|
A|----------------|---------3--3-|----------------|---------3--3-|
E|----------------|--------------|----------------|--------------|

G|------7----7--|------7----7--|------7----7--|------7----7--|
D|----7----7---7|----7----7---7|----7----7---7|----7----7---7|
A|-5------------|-5------------|-5------------|-5------------|
E|--------------|--------------|--------------|--------------|

[Verse]
G|----------|----------|----------|------------|
D|-5---5----|-3---3----|----------|------------|
A|----------|----------|-5---5----|-6---6------|
E|----------|----------|----------|---------1-2|

G|----------|----------|----------|---------------|
D|----------|----------|----------|---------------|
A|----------|----------|-5---5----|--6-6-6-6-6-8-8|
E|-3---3----|-1---1----|----------|---------------|

G|------------|------------|-------------|-------------|
D|-----8----8-|-7---7------|--------7---7|---------3-/4|
A|--------8---|---------3-4|-5---5----5--|-6---6-------|
E|-6----------|------------|-------------|-------------|

G|-------------|-------------|-------------|-------------|
D|-5---5----5-4|-3---3-------|-------------|-------------|
A|--------5----|----------3-4|-5---5----5--|-6---6--6-5-3|
E|-------------|--------5----|--------5---5|-------------|

[Pre-Chorus]
G|-----------------------|-------------------10-8-7-----------|
D|----8------------------|--------------------------10-8-7----|
A|---------8-------------|-7-h8-8-8-7-h8-8-8---------------10-|
E|-6----------6---6-6---6|------------------------------------|

G|-----------------------|---------------------7---7------|
D|----8------------------|------------------------------3-|
A|---------8-------------|-7-h8-8-8-7-h8-8-8-5---5---5----|
E|-6----------6---6-6---6|--------------------------------|

[Chorus/Outro]
G|----------------|--------------|----------------|--------------|
D|-5-5-5-5-5-5-5-5|-5-5-5-5------|-5-5-5-5-5-5-5-5|-5-5-5-5------|
A|----------------|---------5--5-|----------------|---------5--5-|
E|----------------|--------------|----------------|--------------|

G|----------------|--------------|----------------|--------------|
D|-3-3-3-3-3-3-3-3|-3-3-3-3------|-3-3-3-3-3-3-3-3|-3-3-3-3------|
A|----------------|---------3--3-|----------------|---------5--5-|
E|----------------|--------------|----------------|--------------|

G|---7---7---7---7|---7---7------|---7---7---7---7|---7---7------|
D|-5---5---5---5--|-5---5--------|-5---5---5---5--|-5---5--------|
A|----------------|---------5--5-|----------------|---------5--5-|
E|----------------|--------------|----------------|--------------|

G|---5---5---5---5|---5---5------|---5---5---5---5|---5---5------|
D|-3---3---3---3--|-3---3--------|-3---3---3---3--|-3---3--------|
A|----------------|---------3--3-|----------------|---------5--5-|
E|----------------|--------------|----------------|--------------|

G|-------5--------|--------------|-------5--------|--------------|
D|-5-7-8---8-7-5--|-5-5-5-5------|-5-7-8---8-7-5--|-5-5-5-5------|
A|---------------8|---------5--5-|---------------8|---------5--5-|
E|----------------|--------------|----------------|--------------|

G|---------5------|--------------|---------5------|--------------|---|
D|---5-7-8---8-7-5|--------------|---5-7-8---8-7-5|--------------|---|
A|-8--------------|-8-8-8-8------|-8--------------|-8-8-8-8-5--5-|---|
E|----------------|---------8--8-|----------------|--------------|-3\|


****************************

| / Slide up
| \ Slide down
| h Hammer-on
| x Dead note

****************************

            
            
Suggest correction
Creating personal tab
Creating personal tab
You can edit any tab online and save it as your Personal.

You can edit, replace or remove any tab part or add personal notes – all changes will be seen only by you.

Personal tabs can be accessed anytime from any device, even offline.
Learn more »
Give kudos to tab author, rate the tab!
1 2 3 4 5
comments
print report bad tab
guest
You may want to rate the tab now too:
select rating
Wanna post a correction for this tab? Suggest correction