Oops, an error
Loading. Please wait.

Steppin Out bass

version 1
version 1

Whole song

Interactive

3,565 views 12 this week
3 commentsread comments
1 2 3 4 5
x 8
add to favorites
×
Save as Personal and add changes to this tab that will be seen only by you. Learn more ›
×
You can save this tab as Personal to edit and correct it or add notes. All changes will be seen only by you. Learn more »
launch autoscroll
font size
0
reset
guitar tuner
edit
Autoscroll
slow
fast
+/-
esc
set tempo
stop
Author
Difficulty
Steppin Out
Song written and recorded by Joe Jackson in 1982. Reached number 6 in
UK and USA charts.  Bass performance by Graham Maby. Tab by bass50611.
Intro and interludes fast on the old fingers, note the turn rounds
Any comments bass254@btinternet.com  Have Fun!!

Intro:
G|-------------------------------------------------------------------|
D|-44---------44---------44---------44---------44---------44---------|
A|---44-22-44---44-22-44---44-22-44---44-22-44---44-22-44---44-22-44-|
E|-------------------------------------------------------------------|
                                                         (Turn round)
G|-------------------------------------------------------------------|
D|-44---------44---------44---------44---------44---------44---22-33-|
A|---44-22-44---44-22-44---44-22-44---44-22-44---44-22-44---44-------|
E|-------------------------------------------------------------------|

G|-------------------------------------------------------------------|
D|-44---------44---------44---------44---------44---------44---------|
A|---44-22-44---44-22-44---44-22-44---44-22-44---44-22-44---44-22-44-|
E|-------------------------------------------------------------------|

G|-----------------------|
D|-44---------44---------|
A|---44-22-44---44-22-44-|
E|-----------------------|

Verse:
G|---------------------------------------------------------------------|
D|-4-4-4-4-4-4-4-4---0-0-0-0---2-2-2-2---44---------44---------0-0-0-0-|
A|-----------------------------------------44-22-44---44-22-4----------|
E|---------------------------------------------------------------------|

G|-------------------------------------------------------------|
D|-2-2-2-2-----------0-0-0-0---2-2-2-2---------0-0-0-0-0-0-0-0-|
A|----------4-4-4-4--------------------4-4-4-4-----------------|
E|-------------------------------------------------------------|

Interlude:
G|-------------------------------------------------------------------|
D|-44---------44---------44---------44---------44---------44---------|
A|---44-22-44---44-22-44---44-22-44---44-22-44---44-22-44---44-22-44-|
E|-------------------------------------------------------------------|
             (Turn round)
G|-----------------------|
D|-44---------44---22-33-|
A|---44-22-44---44-------|
E|-----------------------|

Repeat Verse:

Repeat Interlude x2:

Repeat Verse

Repeat Interlude several times with/without Bass to Fade/End

Basically The Song Just goes Round and Round

            
            
Suggest correction
Creating personal tab
Creating personal tab
You can edit any tab online and save it as your Personal.

You can edit, replace or remove any tab part or add personal notes – all changes will be seen only by you.

Personal tabs can be accessed anytime from any device, even offline.
Learn more »
comments
print report bad tab
3 comments total.
+1 reply
maxpowweer 639 Oct 02, 2015 08:13 PM

The notes are accurate, but this is played in octaves

0 reply
bass50611 12,935 Oct 03, 2015 04:58 AM

I have rechecked my tab against the original and in answer to the previous comment I still feel it is not played in octaves

0 reply
erind99 10 Jun 07, 2016 06:00 PM

I give you credit for taking it on, but the verse is played with octaves, and not single notes. Check out a few youtubes and you'll get it.

guest
You may want to rate the tab now too:
select rating
Wanna post a correction for this tab? Suggest correction