Oops, an error
Loading. Please wait.

See No More Chords

4,614 views 12 this week
no commentswrite comment
1 2 3 4 5
1 last vote to show rating
add to favorites
launch autoscroll
font size
0
reset
transpose
0
reset
display chords
guitar tuner
×
Best way to learn
"See No More"
Autoscroll
slow
fast
+/-
esc
set tempo
stop
Author
Difficulty
novice
Hi! This is my first tab. I hope you guys find it easy to understand.
I basically just wrote the chords as tabs so everyone can play them. 
I think the strumming is pretty easy if you've heard the song before
so go ahead and make it your own!

Verse 1

   Cm    D#   Bb   F
E---3----6----6----8----|\
B---4----8----6----10---| \
G---5----8----7----10---|  \
D---5----8----8----10---|  / x4
A---3----6----8----8----| /
E---3----6----6----8----|/


Chorus

   G#    D#   G    Bb
E---4----6----3----6----|\
B---4----8----3----6----| \
G---5----8----4----7----|  \
D---6----8----5----8----|  /x4
A---6----6----5----8----| /
E---4----6----3----6----|/


Verse 2

   Cm    D#   Bb   F
E---3----6----6----8----|\
B---4----8----6----10---| \
G---5----8----7----10---|  \
D---5----8----8----10---|  / x4
A---3----6----8----8----| /
E---3----6----6----8----|/


Chorus

   G#    D#   G    Bb
E---4----6----3----6----|\
B---4----8----3----6----| \
G---5----8----4----7----|  \
D---6----8----5----8----|  /x4
A---6----6----5----8----| /
E---4----6----3----6----|/


Bridge (same as verse)

   Cm    D#   Bb   F
E---3----6----6----8----|\
B---4----8----6----10---| \
G---5----8----7----10---|  \
D---5----8----8----10---|  /x2
A---3----6----8----8----| /
E---3----6----6----8----|/


Chorus

   G#    D#   G    Bb
E---4----6----3----6----|\
B---4----8----3----6----| \
G---5----8----4----7----|  \
D---6----8----5----8----|  /x4
A---6----6----5----8----| /
E---4----6----3----6----|/

So there it is! Hope it's correct
Thanks for your support! :)
Suggest correction
Give kudos to tab author, rate the tab!
1 2 3 4 5
comments
print report bad tab
guest
You may want to rate the tab now too:
select rating
Wanna post a correction for this tab? Suggest correction