Oops, an error
Loading. Please wait.

A Thousand Men Tab

2,826 views 6 this week
2 commentsread comments
1 2 3 4 5
x 4
add to favorites
launch autoscroll
font size
0
reset
how to read this tab
guitar tuner
Autoscroll
slow
fast
+/-
esc
set tempo
stop
Help us to improve Ultimate-Guitar.com Take our survey!
×
Author
Difficulty
Capo
novice
5th fret
-------------------------------------------------------------------------------
                             SONG NAME - Band Name
-------------------------------------------------------------------------------
Tabbed by: Abe Musselman
Email: firepick11@gmail.com

Tuning: EADGBe
Capo 5
The intro is fingerpicked, so the TAB might seem confusing, but it should give you
a basic idea of how the song is played.

e|------------------------------------------------------3----2---0--------------|
B|--0h1-----3------------0h1-----3-------------0h3-----------------3-----0------|
G|----0--------0-----0-----0---------0-----0-----0--------0---0-------0---------|
D|-------0--------0-----------0---------0-----------0---------------------------|
A|------------------------------------------------------3----3---3--------------|
E|--3-------3------------3-------3-------------3-------------------------3------|

e|------------------------------------------------------------------------------|
B|-----------------0------------0-----0-----------------------------------------|
G|--0-----0----0---0---0----2------------0-----0--------------------------------|
D|-----0-----------2-----2--0-----0---------0-----------------------------------|
A|--------------------------0---------------------------------------------------|
E|-----------3-----0------------------3-----------3-----------------------------|

      G                      C              G
See Thomas Jefferson, on the eve of Bunker Hill
C                G                Em    D      G
Writing words to die for, writing sentences to kill
G                                         C                G
They've come to take his portrait, so he grabs a chair and sits
Em     C                            Em       D     G
As the surgeon orders cotton, for a thousand tourniquets

G           C                   Em
For God and country, for us and them
Em         C                             Em
Every good idea, kills at least a thousand men
    C       D       G
At least a thousand men

************************************

| /   slide up
| \   slide down
| h   hammer-on
| p   pull-off
| ~   vibrato
| +   harmonic
| x   Mute note
| b   Bend
| pb  Pre-bend
| br  Bend release
| pbr Pre-bend release
| brb Bend release bend

************************************
Suggest correction
comments
print report bad tab
2 comments total.
0 reply
RodGab749 10 Feb 04, 2013 09:16 AM

Good tab man.

0 reply
spartanfan10 18 Oct 05, 2013 02:40 PM

Man, I love "SONG NAME - Band Name" :)

guest
You may want to rate the tab now too:
select rating
Wanna post a correction for this tab? Suggest correction