Oops, an error
Loading. Please wait.

Hymn 101 Tab

27,252 views 54 this week
2 commentsread comments
1 2 3 4 5
excellent!
x 10
add to favorites
launch autoscroll
font size
0
reset
how to read this tab
guitar tuner
Autoscroll
slow
fast
+/-
esc
set tempo
stop
Help us to improve Ultimate-Guitar.com Take our survey!
×
Author
Joe Pug
Hymn 101

Tabbed By Sam Borchard
Questions / Comments to sborchard (at) gmail.com

The chords are definitely correct. The picking pattern I'm guessing at,
but it sounds pretty good to me. The way I play it the repeated notes
(usually on the D string) are picked with the index finger, then thumb,
then index finger. The rhythm is also a bit syncopated - listen to the
song and it should make sense.

The song is played in drop-D tuning (DADGBE), and is sometimes
capoed up 2 frets depending on the version.

Enjoy!

INTRO

   D                               G         D     G       D
e|-----------------------------------------------------------------|
B|-3----3--3----3--3----3--3----3--3---------3--3------------3--3--|
G|-2----2--2----2--2----2--2----2--0---------2--2------------2--2--|
D|---0-0-0---0-0-0---0-0-0---0-0-0---0---0-----0-0---0---0-----0-0-|
A|---------------------------------2---0-----------2---0-----------|
D|-0-------0-------0-------0---------------0---------------0-------|

   Bm      A       G         D
e|-----------------------------------------------------------------|
B|-3----3--2----2--3---------3--3--3----3--3----3--3----3--3----3--|
G|-4----4--2----2--0---------2--2--2----2--2----2--2----2--2----2--|
D|---4-4-4---2-2-2---0---0-----0-0---0-0-0---0-0-0---0-0-0---0-0-0-|
A|-2-------0-------2---0-------------------------------------------|
D|-------------------------0-------0-------0-------0-------0-------|



VERSE

   G               D               G               D
e|-----------------------------------------------------------------|
B|-3----3--3----3--3----3--3----3--3----3--3----3--3----3--3----3--|
G|-0----0--0----0--2----2--2----2--0----0--0----0--2----2--2----2--|
D|---0-0-0---0-0-0---0-0-0---0-0-0---0-0-0---0-0-0---0-0-0---0-0-0-|
A|-2-------2-----------------------2-------2-----------------------|
D|-----------------0-------0-----------------------0-------0-------|

   Bm      A       G       D               Asus4   D
e|-----------------------------------------------------------------|
B|-3----3--2----2--3----3--3----3--3----3--3----3--3----3--3----3--|
G|-4----4--2----2--0----0--2----2--2----2--2----2--2----2--2----2--|
D|---4-4-4---2-2-2---0-0-0---0-0-0---0-0-0---2-2-2---0-0-0---0-0-0-|
A|-2-------0-------2-----------------------0-----------------------|
D|-------------------------0-------0---------------0-------0-------|

   D       Asus4   D
e|-------------------------------------------------|
B|-3----3--3----3--3----3--3----3--3----3--3----3--|
G|-2----2--2----2--2----2--2----2--2----2--2----2--|
D|---0-0-0---2-2-2---0-0-0---0-0-0---0-0-0---0-0-0-|
A|---------0---------------------------------------|
D|-0---------------0-------0-------0-------0-------|



CHORUS

   G                                       D
e|-----------------------------------------------------------------|
B|-3----3--3----3--3----3--3----3--3----3--3----3--3----3--3----3--|
G|-0----0--0----0--0----0--0----0--0----0--2----2--2----2--2----2--|
D|---0-0-0---0-0-0---0-0-0---0-0-0---0-0-0---0-0-0---0-0-0---0-0-0-|
A|-2-------2-------2-------2-------2-------------------------------|
D|-----------------------------------------0-------0-------0-------|

   D       G                                       D
e|-----------------------------------------------------------------|
B|-3----3--3----3--3----3--3----3--3----3--3----3--3----3--3----3--|
G|-2----2--0----0--0----0--0----0--0----0--0----0--2----2--2----2--|
D|---0-0-0---0-0-0---0-0-0---0-0-0---0-0-0---0-0-0---0-0-0---0-0-0-|
A|---------2-------2-------2-------2-------2-----------------------|
D|-0-----------------------------------------------0-------0-------|

   Bm      A       G       D               Asus4   D
e|-----------------------------------------------------------------|
B|-3----3--2----2--3----3--3----3--3----3--3----3--3----3--3----3--|
G|-4----4--2----2--0----0--2----2--2----2--2----2--2----2--2----2--|
D|---4-4-4---2-2-2---0-0-0---0-0-0---0-0-0---2-2-2---0-0-0---0-0-0-|
A|-2-------0-------2-----------------------0-----------------------|
D|-------------------------0-------0---------------0-------0-------|

   D       Asus4   D
e|---------------------------------|
B|-3----3--3----3--3----3--3----3--|
G|-2----2--2----2--2----2--2----2--|
D|---0-0-0---2-2-2---0-0-0---0-0-0-|
A|---------0-----------------------|
D|-0---------------0-------0-------|



INSTRUMENTAL BRIDGE

   D               G       D                       Asus4   A    G
e|-2-------2---0-------------------2-------2---0-------------------|
B|-3----3--3-------3---0---3----3--3----3--3---3---3----3--2----0--|
G|------2----------0---0---2----2-------2----------2----2--2----0--|
D|---0-0-0---0---0---0---0---0-0-0---0-0-0---0---0---2-2-2---2-2-0-|
A|-------------0---2---2---------------------------0-------0-------|
D|-0-------0---------------0-------0-------0---0-------------------|

   Bm           G          D               As4 A   D
e|-----------------------------------------------------------------|
B|-3----3--3----0------------3--3--3----3--3---2-----3--3--3----3--|
G|-4----4--4----0------------2--2--2----2--2---2-----2--2--2----2--|
D|---2-2-2---2-2-0---0---0-----0-0---0-0-0---2---2-----0-0---0-0-0-|
A|-2-------2-------2---0-------------------0---0-------------------|
D|-------------------------0-------0---------------0-------0-------|

   D
e|-----------------|
B|-3----3--3----3--|
G|-2----2--2----2--|
D|---0-0-0---0-0-0-|
A|-----------------|
D|-0-------0-------|


And it ends on a single strum of a full D chord


INTRO

VERSE
Yea I've come to know the wishlist of my father
I've come to know the shipwrecks where he wished
I've come to wish aloud among the over-dressed crowd
Come to witness now the sinking of the ship
Throwing pennies from the sea top next to it

VERSE
And I've come to roam the forest past the village
With a dozen lazy horses in my cart
I've come here to get high,
To do more than just get by.
I've come to test the timber of my heart
Oh, I've come to test the timber of my heart

CHORUS
And I've come to be untroubled in my seeking
And I've come to see that nothing is for naught
I've come to reach out blind
to reach forward and behind
For the more I seek the more I'm sought
Yea, the more I seek the more I'm sought.

INSTRUMENTAL BRIDGE

VERSE
And I've come to meet the sheriff and his posse
To offer him the broadside of my jaw
I've come here to get broke
Then maybe bum a smoke
We'll go drinking two towns over after all
Oh, we'll go drinking two towns over after all.

VERSE
And I've come to meet the legendary takers
I've only come to ask them for a lot
Oh they say I come with less
than I should rightfully possess
I say the more I buy the more I'm bought
And the more I'm bought the less I cost

CHORUS
And I've come to take their servants and their surplus
And I've come to take their raincoats and their speed
I've come to get my fill
To ransack and spill
I've come to take the harvest for the seed
I've come to take the harvest for the seed

INSTRUMENTAL BRIDGE

VERSE
And I've come to know the manger that you sleep in
I've come to be the stranger that you keep
I've come from down the road
And my footsteps never slowed
Before we met, I knew we'd meet
Before we met, I knew we'd meet

VERSE
And I've come here to ignore your cries and heartaches
I've come to closely listen to you sing
I've come here to insist
That I leave here with a kiss
I've come to say exactly what I mean
and I mean so many things.

CHORUS
And you've come to know me stubborn as a butcher
and you've come to know me thankless as a guest
will you recognize my face when gods awful grace
strips me of my jacket and my vest
and reveals all the treasure in my chest
Suggest correction
What's this?
You can suggest a correction to this tab. Community and Mods will review your correction and vote to approve or reject it.
comments
print report bad tab
2 comments total.
0 reply
Punx300 171 wrote on April 9 2012, 04:12 pm

Thanks man, this is pretty sick!

0 reply
daveb672 1,037 wrote on August 12 2015, 02:43 am

It sounds better to me if you capo the hi E,B,G,D and A strings at the second fret, but leave the Low E string without the Capo. Then I think you can just leave it in standard tuning.

guest
You may want to rate the tab now too:
select rating
Please do not post tabs as comments. Select "correction" instead!