Oops, an error
Loading. Please wait.

Hymn 35 Tab

6,396 views 3 this week
1 commentread comment
1 2 3 4 5
x 4
add to favorites
launch autoscroll
font size
0
reset
how to read this tab
guitar tuner
Autoscroll
slow
fast
+/-
esc
set tempo
stop
Help us to improve Ultimate-Guitar.com Take our survey!
×
Difficulty
Capo
novice
2nd fret
This is repeated throughout the song, pretty simple

capo 2

 C
|---------------------------|
|-1--------1----1--------1--|
|---2-------2-----2-------2-|       
|---------------------------|      x2
|-3-------------3-----------|
|---------------------------|


  Am                       F
|------------------------------------------------|
|-1-------1---1--------1-----1--------1----1-----|
|---2------2----2-------2------2-------2-----2---|
|----------------------------3-------------3-----|
|-0-----------0----------------------------------|
|------------------------------------------------|
Suggest correction
comments
print report bad tab
1 comment total.
0 reply
caniacs12 42 Dec 21, 2013 02:57 PM

Great tab, but this sounds more like it to me:

Capo 2

E|-------------------------
B|--------1----------1-----
G|----0----------0--------- x2
D|----2-----2----2-----2---
A|-3-----------3-----------
E|-------------------------

Am Fmaj7/C
E|------------------------------------------------
B|--------1-----------1-----------1-----------1---
G|----2-----------2-----------2-----------2-------
D|----2-----2-----2-----2-----3-----3-----3-----3-
A|-0-----------0-----------3-----------3----------
E|------------------------------------------------

*On the two notes played together, I would do a little strum with the index finger instead of a pinch. You could also just pick the D-string.

guest
You may want to rate the tab now too:
select rating
Wanna post a correction for this tab? Suggest correction