Oops, an error
Loading. Please wait.

I Love The Rain The Most tab

version 1
version 1

Whole song

8,275 views 1 this week
1 commentread comment
1 2 3 4 5
1 last vote to show rating
add to favorites
×
Save as Personal and add changes to this tab that will be seen only by you. Learn more ›
×
You can save this tab as Personal to edit and correct it or add notes. All changes will be seen only by you. Learn more »
launch autoscroll
font size
0
reset
how to read this tab
guitar tuner
edit
Autoscroll
slow
fast
+/-
esc
set tempo
stop
-------------------------------------------------------------------------------
I Like The Rain The Most - Joe Purdy
-------------------------------------------------------------------------------
Tabbed by: Birdey
Email: Nope

Tuning: Standard (Capo 3)

                      *                *           *
e|------1-------------1h3ph1-----------1-----------1-----|
B|------1-----------1-1------1-------1-1-1-------1-1-1---|
G|----0-0h2-2-----2---2------------2---2--------0--1-----|
D|--3----------------------------0-----------------------|
A|--------------1----------------------------3-----------|
E|-------------------------------------------------------|

*Not sure if he's hitting all three or just the top two strings
here on these parts but either way it's close enough.
If you can work it out, you've got more patience than I have.

This pattern is repeated the whole way through the song.


Chords used (i.e. these are the shapes you want to make):

e|-1---1---1---1-----|
B|-1---1---1---1-----|
G|-2---2---2---0-----|
D|-3--(3)--0--(2)----|
A|-----1-------3-----|
E|-------------------|


| /  slide up
| \  slide down
| h  hammer-on
| p  pull-off
| ~  vibrato
| +  harmonic
| x  Mute note
===============================================================================
Suggest correction
Creating personal tab
Creating personal tab
You can edit any tab online and save it as your Personal.

You can edit, replace or remove any tab part or add personal notes – all changes will be seen only by you.

Personal tabs can be accessed anytime from any device, even offline.
Learn more »
Give kudos to tab author, rate the tab!
1 2 3 4 5
comments
print report bad tab
1 comment total.
0 reply
awilson25 10 Jan 23, 2007 06:56 PM

i think the second part of the riff sounds better like this...

e|------------------|
b|---------1h3p1----|
g|------3--3-----3--|
d|----3-------------|
a|--1---------------|
E|------------------|

guest
Wanna post a correction for this tab? Suggest correction