Oops, an error
Loading. Please wait.

Always With Me Always With You Tab

version 1
553,083 views 1,197 this week
38 commentsread comments
1 2 3 4 5
excellent!
x 130
add to favorites
launch autoscroll
font size
0
reset
how to read this tab
guitar tuner
Autoscroll
slow
fast
+/-
esc
set tempo
stop
Help us to improve Ultimate-Guitar.com Take our survey!
×
'Always with me, Always with you' 


[MAIN RHYTHM AND INTRO]


e|------------------------------------------------|
B|------5----------5-----------4-----------2------|
G|----8---8------8---8-------6---6-------4---4----| x3
D|--9------9---9-------9---6-------6---4-------4--|
A|------------------------------------------------|
E|-7---------7-----------0-----------2------------|

e|----------------------------------------------------------------------|
B|-------2-----------4-----------2-----------2--------------------------|
G|-----4---4-------6---6-------4---4-------3---3------------------------|
D|- ---4-------4---6-------6---4-------4---4-------4--------------------|
A|----------------------------------------------------------------------|
E|-4-----------0-----------2-----------2--------------------------------|


[END MAIN RHYTHM]

  w/main rhythm                 {a.h}
e|----------------------------------------------------------------------|
B|--4---5--5/7~~~~~-7/9---7---5--4-----5--------------------------------|
G|----------------------------------------4/6~~~~~-----\4---6--/8--/9---|
D|----------------------------------------------------------------------|
A|----------------------------------------------------------------------|
E|----------------------------------------------------------------------|

                    { p.m.}    {s.h}  { p.m.}               {p.m}
e|----------------------------------------------------------------------|
B|---------------------------------------------------------------4--5--7|
G|-8---6------------------------4~~~----------/6~~---/8\6~~~---4--------|
D|--------4~~~~~~----4--4--------------4--4-----------------------------|
A|----------------------------------------------------------------------|
E|----------------------------------------------------------------------|

     p        p
e|------------------------------------------7--7--------9---9----9--11--|
B|7/9--7\5\4~~~~2-------------4--5--5/7--/9------/11~~~---12--12--------|
G|----------------/4~~~~~-----------------------------------------------|
D|----------------------------------------------------------------------|
A|----------------------------------------------------------------------|
E|----------------------------------------------------------------------|

                full         1/2 p        1/2 1/2     1/4   full
e|-/14--11-------------------18^--16------18^-^------16^---19^----19----
B|----------14--14^--14~~~------------19----------19--------------------
G|----------------------------------------------------------------------
D|----------------------------------------------------------------------
A|----------------------------------------------------------------------
E|----------------------------------------------------------------------


   full   w/bar          p    p  p                 p                 full
e|--------------------16----15-14-13\12\11---14--12-11-----------19-----|
B|-17^---17~~~----x\0----------------------------------14~~~-/----------|
G|------------------------------------------------------------------18^-|
D|----------------------------------------------------------------------|
A|----------------------------------------------------------------------|
E|----------------------------------------------------------------------|

   s.h         full                 1/2      1/2 p           p
e|-18----16------------------------21^~~~\--14^---12----12----------/17-|
B|-------------19^----19~~~~~~-----------------------15----15-14-12-----|
G|----16----16----------------------------------------------------------|
D|----------------------------------------------------------------------|
A|----------------------------------------------------------------------|
E|----------------------------------------------------------------------|

           1/2 1/2 p         p p   p   h h p p   h p p      p  p h h
e|-14~~~~\--9^-^----7----7----------------------------------------------|
B|--------------------10---10-8-7---------------------------------------|
G|--------------------------------9-7\6-7-9-7-6\4-7-6-4---4-----------4-|
D|------------------------------------------------------7---7-5-4-5-7---|
A|----------------------------------------------------------------------|
E|----------------------------------------------------------------------|

    p p   p              1/2         h    h  h    h  h    h  h  h
e|----------------------21^-~~~~----------------------------------------|
B|------------------------------------------------------12-14-15-14-12--|
G|----------------------------------------------11-12-14----------------|
D|-7-5-4--------------------------------11-12-14------------------------|
A|-------7-5--4~~~~~/--------------12-14--------------------------------|
E|----------------------------------------------------------------------|

        p                   w/bar         1/2
e|---------------------------------------14^----------------------------|
B|--------------------0--/12~~~~------12--------------------------------|
G|-14-12-11-/-15~~~-----------------------------15\11-------------------|
D|----------------------------------------------------------------------|
A|----------------------------------------------------13\9~~~~\---------|
E|----------------------------------------------------------------------|

    1/2        1/2
e|------------14^~~~----12--11\9~\7\6~~~~-----11-12-/14~~~--/16~~-14-12-|
B|-14^--12~~~-----------------------------------------------------------|
G|----------------------------------------------------------------------|
D|----------------------------------------------------------------------|
A|----------------------------------------------------------------------|
E|----------------------------------------------------------------------|
                                        a.h.                p
e|-11--12\9~~~~----9\7--9/11--------------------11-12--14-16-14---------|
B|----------------------------12/14--/16-14--/-------------------17-----|
G|----------------------------------------------------------------------|
D|----------------------------------------------------------------------|
A|----------------------------------------------------------------------|
E|----------------------------------------------------------------------|


                  p    t p h   t p h   t p h   t p h   t p h   t p h
e|----------------------------------------------------------------------|
B|-16\14\12-----12-11--12-0-9--12-0-7--12-0-9--12-0-5--12-0-7--12-0-9---|
G|----------------------------------------------------------------------|
D|----------------------------------------------------------------------|
A|----------------------------------------------------------------------|
E|----------------------------------------------------------------------|

   t p h   t p h   t p h   t p h   t p h   t p h    t p h    t p h
e|----------------------------------------------------------------------|
B|-12-0-7--12-0-5--12-0-7--12-0-7--12-0-7--12-0-11--12-0-11--12-0-9-----|
G|----------------------------------------------------------------------|
D|----------------------------------------------------------------------|
A|----------------------------------------------------------------------|
E|----------------------------------------------------------------------|

   t p h   t p h   t p h   t p h   t p h   t p h   t p h   t p h
e|----------------------------------------------------------------------|
B|-12-0-7--12-0-9--12-0-7--12-0-5--12-0-7--12-0-9--12-0-7--12-0-5-------|
G|----------------------------------------------------------------------|
D|----------------------------------------------------------------------|
A|----------------------------------------------------------------------|
E|----------------------------------------------------------------------|

   t p h   t p h   t p h   t p h   t p h   t p h    t p h    t p h
e|----------------------------------------------------------------------|
B|-12-0-4--12-0-2--12-0-2--12-0-2--12-0-2--12-0-11--12-0-11--12-0-9-----|
G|----------------------------------------------------------------------|
D|----------------------------------------------------------------------|
A|----------------------------------------------------------------------|
E|----------------------------------------------------------------------|

   t p h   t p h   t p h   t p h   t p h   t p h   t p h   t p h
e|----------------------------------------------------------------------|
B|-12-0-7--12-0-9--12-0-7--12-0-5--12-0-7--12-0-9--12-0-7--12-0-5-------|
G|----------------------------------------------------------------------|
D|----------------------------------------------------------------------|
A|----------------------------------------------------------------------|
E|----------------------------------------------------------------------|

   t p h   t p h   t p h   t p h                             {-1 w/bar}
e|--------------------------------------------------------------/12-----|
B|-12-0-4--12-0-5--12-0-5--12-0-5---9---7/9--/12--/14--12--/14--/9------|
G|----------------------------------8---6/8--/11--/13--11--/13----------|
D|----------------------------------------------------------------------|
A|----------------------------------------------------------------------|
E|----------------------------------------------------------------------|

  {-1/4 w/bar}{-1  -1  -1/4  -1 w/bar}           p     p   full p
e|-----12---------14--14---14---14-------/19--19~~~-16-------19^----16--|
B|-----9----------11--11---11---12---------------------19-16------------|
G|----------------------------------------------------------------------|
D|----------------------------------------------------------------------|
A|----------------------------------------------------------------------|
E|----------------------------------------------------------------------|

     p     full p           full full      p full    p p   full     p
e|--------21^----19--21~~~\-------------4------------------------4------|
B|-19-16----------------------------------7-4-----4----------------6-4--|
G|---------------------------6^--6^-----------6^----7-6-4--6^^----------|
D|----------------------------------------------------------------------|
A|----------------------------------------------------------------------|
E|----------------------------------------------------------------------|

   full    p p   p   p                      1/2              1/2 p p
e|-----4------------------------------------------7---11\10/11^---9-7-9-|
B|-----4----------------------------------------7-----------------------|
G|-6^-----7-6-4---------------------------8/9^--------------------------|
D|--------------6-4-----------------------------------------------------|
A|------------------6-4-\2---/4~~~~~/-----------------------------------|
E|----------------------------------------------------------------------|

     p  p           h  p    h p                  full        1 1/2 bend
e|----------------------------------------------21^----19~~~---21^------|
B|-12-11-9--11~~~--9-11-9\7--9-7\5~~------------------------------------|
G|------------------------------------/11~~~/---------------------------|
D|----------------------------------------------------------------4/6\4~|~~
A|----------------------------------------------------------------------|
E|----------------------------------------------------------------------|

                                          h p        [p.m.]     [p.m.]
e|----------------------------------------------------------------------
B|-4-5-/7~~--7/9--7~~\5\4/5\2~~~----------------------------------------
G|--------------------------------4-6/8~~~---9-8-\6-----------4~~-------
D|-------------------------------------------------\4---4--4-------4--4-
A|----------------------------------------------------------------------
E|----------------------------------------------------------------------

                                                 [s.h    ]
e|----------------------------------------------------------------------|
B|--------------------4-5-7-7/9\7\5\4\2~~-----------4-5-7---/9~~\7----5-|
G|-/6~~/8~~~\6~~~---4----------------------3/4~~--4---------------------|
D|----------------------------------------------------------------------|
A|----------------------------------------------------------------------|
E|----------------------------------------------------------------------|

     h             h          p    p p   h h  p p   p  p h h
e|----------------------------------------------------------------------|
B|-4--5-----------------------------------------------------------------|
G|-------4/6~~~-----------8-9--8----------------------------------------|
D|----------------8-9--11--------11-9-8\6-8-9--8-6------------6---------|
A|-------------------------------------------------9--7-6-7-9-----------|
E|----------------------------------------------------------------------|

    p p h h  p p  h  h  p  h  p
e|----------------------------------------------------------------------|
B|----------------------------------------------------------------------|
G|-----------4---6-------6---4-------4---4-------4----------------------|
D|----------------------------------------------------------------------|
A|----------------------------------------------------------------------|
E|----------------------------------------------------------------------|



****************************************************

h  =  hammer on         
p  =  pull off          
/  =  slide up          
\  = slide down         
^  = bend with size of bend notated above
a.h = Artificial Harmonic
s.h = Semi Harmonic
w/bar = use tremolo bar
t  =  right hand tap on

****************************************************
Suggest correction
comments
print report bad tab
38 comments total. Showing first comments.
0 reply
`frenzaL 10 wrote on May 14 2002, 12:00 am

u rock dude... kinda sounds like it...but a few erras here and there....cool sh*t though....

-1 reply
fowlup182 10 wrote on January 22 2003, 12:00 am

tell me someone does he use a plectrum on this one

0 reply
StreamLine 30 wrote on May 3 2003, 12:00 am

yup both rhytm guitar and lead.... putting in tapping and artificial harmonics is no easy job tho

guest
You may want to rate the tab now too:
select rating
Please do not post tabs as comments. Select "correction" instead!