Oops, an error
Loading. Please wait.

Always With Me Always With You Tab

version 5
13,316 views 3 this week
1 commentread comment
1 2 3 4 5
please rate
add to favorites
launch autoscroll
font size
0
reset
how to read this tab
guitar tuner
Tab Pro tools
  • play this tab
  • loop segment
  • change instrument
  • show fretboard
  • metronome
×
Best way to learn
"Always With Me Always With You"
Autoscroll
slow
fast
+/-
esc
set tempo
stop
Contributor
Song: Always with me Always with you
Artist: Joe Satriani
Tuning:Standard (eBGDAE)


Well this song took a lot of work and time but i feel extremely confidant that it is
if you have any questions or corrections don't hesitate to comment or email me at 
obed_117@hotmail.com.

Key:

p:pull-off
h:Hammer-on
T:Tap
*:Artificial Harmonic
**:Natural Harmonic
#^:Play note then bend
^#:Bend then play note
^^:Bend more than once
\:Slide Down
/:Slide Up
~:vibrato
.:palm mute
(#):not played agian
/-#:drop note by indicated number


  INTRO (X2)
E----------------------------------------------------|
B-------5-------------5-----------4------------2-----|
G-----8---8---------8---8-------6---6--------4---4---|
D---9-------9-----9-------9---6-------6----4-------4-|
A----------------------------------------------------|
E-7-------------7------------0-----------2-----------|

  INTRO END
E----------------------------------------------------|
B-------5-------------5-----------4------------2-----|
G-----8---8---------8---8-------6---6--------4---4---|
D---9-------9-----9-------9---6-------6----4-------4-|
A----------------------------------------------------|
E-7-------------7------------0-----------2-----------|

E----------------------------------------------------|
B-------2------------4------------2------------2-----|
G-----4---4--------6---6--------4---4--------3---3---|
D---4-------4----6-------6----4-------4----4-------4-|
A----------------------------------------------------|
E-4------------0------------2------------2-----------|

E-----------------------------------|
B-4/5--5/7~--7/9--7-5-*4-5----------|
G--------------------------4/6-(6)~-|
D-----------------------------------|
A-----------------------------------|
E-----------------------------------|

E--------------------------------|
B--------------------------------|
G-6\4--6--6/8--8/9--8-6----------|
D-----------------------4---(4)~-|
A--------------------------------|
E--------------------------------|

E------------------------|
B------------------------|
G-----4-----4/6~--6/8\6--|
D-4-4---4-4--------------|
A------------------------|
E------------------------|
  . .   . .

E-----------------------|
B-4-5-7-7/9p7\5\4\2-----|
G--------------------/4-|
D-----------------------|
A-----------------------|
E-----------------------|

E---------------7-7-------9----9----9-11-12/14--11----------------|
B-4-5-5/7--7/9~-----9/11~---12---12----------------14-14^-(14)~---|
G-----------------------------------------------------------------|
D-----------------------------------------------------------------|
A-----------------------------------------------------------------|
E-----------------------------------------------------------------|

E-^18p16----18^^----16^-19^--19----------------|
B--------19------19-------------17^--(17)~-x\--|
G----------------------------------------------|
D----------------------------------------------|
A----------------------------------------------|
E----------------------------------------------|

E-16-(16)p15p14p13\12\11--14-12p11-----------19-----18*----16----|
B----------------------------------14~- 14\----------------------|
G-----------------------------------------------^18-----16----16-|
D----------------------------------------------------------------|
A----------------------------------------------------------------|
E----------------------------------------------------------------|

E-------------21^-(21)~--(21)\-14^-(14)p12----12----------15/17--|
B-19^~~~-**12------------------------------15----15p14-12--------|
G----------------------------------------------------------------|
D----------------------------------------------------------------|
A----------------------------------------------------------------|
E----------------------------------------------------------------|

E-14~-(14)\--9^^-(9)p7----7--------------------------------------|
B----------------------10---10p8p7-------------------------------|
G----------------------------------9p7\6h7h9--9p7p6\4h7--(7)p6p4-|
D----------------------------------------------------------------|
A----------------------------------------------------------------|
E----------------------------------------------------------------|

E-------------------------------------21^-|
B-----------------------------------------|
G---4-----------4-------------------------|
D-7---7p5p4h5h7---7p5p4-------------------|
A-----------------------h7p5-4--(4)/------|
E-----------------------------------------|

E---------------------------------------------------------|
B-------------------------12h14h15p14-12------------------|
G----------------11h12h14----------------14-12\11--11/15~-|
D-------11h12h14------------------------------------------|
A-12h14---------------------------------------------------|
E---------------------------------------------------------|

E----------------14^------------------|
B-10/12-(12)~-12----------------------|
G--------------------15\11------------|
D-------------------------------------|
A--------------------------13\9--(9)\-|
E-------------------------------------|

E-----------14^--12--11\9--(9)\7\6~--11-12--12/14~--14h16~-|
B-14^--12~-------------------------------------------------|
G----------------------------------------------------------|
D----------------------------------------------------------|
A----------------------------------------------------------|
E----------------------------------------------------------|

E-14-12-11-12\9--(9)~--9\7--9-9/11~--11^--(11)p9-----------|
B------------------------------------------------9\7~------|
G----------------------------------------------------------|
D----------------------------------------------------------|
A----------------------------------------------------------|
E----------------------------------------------------------|

E-----------------------------------11-12-14-16p14---------|
B-------12~-------12\14~-14/16--14*------------------------|
G-11-11-----11-11------------------------------------------|
D----------------------------------------------------------|
A----------------------------------------------------------|
E----------------------------------------------------------|
  .  .       .  .

E-------------|
B-17-16\14\12-|
G-------------|
D-------------|
A-------------|
E-------------|

Tapping Part

E-----------------------------------------------------------|
B-T12p11-T12p0h9-T12p0h7-T12p0h9-T12p0h5-T12p0h7-T12p0h9----|
G-----------------------------------------------------------|
D-----------------------------------------------------------|
A-----------------------------------------------------------|
E-----------------------------------------------------------|

E-----------------------------------------------------------|
B-T12p0h7-T12p0h5-T12p0h7-T12p0h7-T12p0h7-T12p0h7-T12p0h11--|
G-----------------------------------------------------------|
D-----------------------------------------------------------|
A-----------------------------------------------------------|
E-----------------------------------------------------------|

E-----------------------------------------------------------|
B-T12p0h11-T12p0h11-T12p0h9-T12p0h7-T12p0h9-T12p0h7-12p0h5--|
G-----------------------------------------------------------|
D-----------------------------------------------------------|
A-----------------------------------------------------------|
E-----------------------------------------------------------|

E-----------------------------------------------------------|
B-T12p0h7-T12p0h9-T12p0h7-T12p0h5-T12p0h4-T12p0h2-T12p0h2---|
G-----------------------------------------------------------|
D-----------------------------------------------------------|
A-----------------------------------------------------------|
E-----------------------------------------------------------|

E-----------------------------------------------------------|
B-T12p0h2-T12p0h2-T12p0h2-T12p0h11-T12p0h11-T12p0h9-T12p0h7-|
G-----------------------------------------------------------|
D-----------------------------------------------------------|
A-----------------------------------------------------------|
E-----------------------------------------------------------|

E-----------------------------------------------------------|
B-T12p0h9-T12p0h7-T12p0h9-T12p0h7-T12p0h5-T12p0h7-T12p0h9---|
G-----------------------------------------------------------|
D-----------------------------------------------------------|
A-----------------------------------------------------------|
E-----------------------------------------------------------|

E-----------------------------------------------------------|
B-T12p0h7-T12p0h5-T12p0h4-T12p0h5-T12p0h5-T12p0h5-T12p0h5---|
G-----------------------------------------------------------|
D-----------------------------------------------------------|
A-----------------------------------------------------------|
E-----------------------------------------------------------|

E--------|
B-T12p0--|
G--------|
D--------|
A--------|
E--------|

E--------------------------------/12--(12)--/14--(14)-(14)----|
B-/9--7/9--/12--12/14--12--12/14-/9---(9-)--/11--(11)-(11)----|
G-/8--8/8--/11--11/13--11--11/13------------------------------|
D-------------------------------------------------------------|
A-------------------------------------------------------------|
E-------------------------------------------------------------|
                                 /-1  /¼    /-1  /-1  /¼------|

E-/14/19-19~-(19)p16-------19^-(19)p16-------21^-(21)p19-21\-|
B-/12----------------10p16-------------19p16-----------------|
G------------------------------------------------------------|
D------------------------------------------------------------|
A------------------------------------------------------------|
E------------------------------------------------------------|

E-------4--------------------4--------4----------------------|
B---------7p4----4-------------6p4----4----------------------|
G-6^-6^-------6^---7p6p4-6^^-------6^---7p6p4----------------|
D---------------------------------------------6p4------------|
A-------------------------------------------------6p4\2--2/4-|
E------------------------------------------------------------|

E--------------------7-11--11-(11)-(11)-(11)p9p7-9-----------|
B------------------7-------------------------------12p11p9---|
G-----------9-(9^)-------------------------------------------|
D------------------------------------------------------------|
A-(4)~-(4/)--------------------------------------------------|
E------------------------------------------------------------|
           /-1        /-1    /½   /½

On the /½ pull your bar up.

E--------------------------------21^-19~-21^--------|
B-11~-9h11p9\7h9p7\5~-------------------------------|
G---------------------/11--(11/)--------------------|
D--------------------------------------------4/6\4~-|
A---------------------------------------------------|
E---------------------------------------------------|

E------------------------------------------------------------|
B-4-5--5/7~--7/9p7--(7)\5\4/5\2-(2)~-------------------------|
G-------------------------------------4~-6/8-8h9P8-8\6-------|
D------------------------------------------------------6\4~--|
A------------------------------------------------------------|
E------------------------------------------------------------|

E----------------------------------------------------|
B----------------------------4-5-7-7/9\7\5\4\2-------|
G-----4~-----4/6~--6/8\6~--4-------------------3h4~--|
D-4-4----4-4-----------------------------------------|
A----------------------------------------------------|
E----------------------------------------------------|

E-----------------------------------|
B---4*-5-7-7/9~-9\7--5-4h5----------|
G-4------------------------4/6-(6)~-|
D-----------------------------------|
A-----------------------------------|
E-----------------------------------|

E---------------------------------------------------------------|
B---------------------------------------------------------------|
G--------8-9--(9)p8---------------------------------------------|
D-8h9-11------------11p9p8\6h8h9-(9)p8p6------------6-----------|
A----------------------------------------h9p7p6h7h9---9p7p6h7h9-|
E---------------------------------------------------------------|

E---------------------------|
B---------------------------|
G---------------------------|
D---------------------------|
A-(9)p7p6----6h7-(7)p6------|
E---------h9-----------h9p7-|

End.
comments
We did not receive enough feedback on this tab! Please rate:
print report bad tab
1 2 3 4 5
1 comment total.
0 reply
obed1023 wrote on October 20 2009, 09:04 pm

this is the best tab ever!

I want to post or [tab]
guest
You may want to rate the tab now too:
select rating
Please do not post tabs as comments. Select "correction" instead!