Oops, an error
Loading. Please wait.

Andalusia Tab

version 2
version 2

Intro

Interactive

4,799 views 12 this week
1 commentread comment
1 2 3 4 5
please rate
add to favorites
launch autoscroll
font size
0
reset
how to read this tab
guitar tuner
Autoscroll
slow
fast
+/-
esc
set tempo
stop
Help us to improve Ultimate-Guitar.com Take our survey!
×
Difficulty
advanced
H=hummer on
P=pull off
/=slide
LR=let ring
TR=tremolo picking
V=vibrato
*=natural harmonic

E---------------------------------------------------------------------------|
B---7----------7---------7---------7---------8------------------------------|
G-----9--9-7H9---9--9-7H9--9--9-7H9--9--9-7H9--9--9-9P7--7--7H9--9-7H9------|
D-------------------------------------------------------9-------------------|
A---------------------------------------------------------------------------|
E-0-------------------------------------------------------------------------|

E----------------------------------------------------------------------------|
B--7--7-8--8--10---12-10--8--10--12--10---8-10--7-8--5-7--3H5--3--3H5--5V----|
G-9--------------------------------------------------------------5-----------|
D----------------------------------------------------------------------------|
A----------------------------------------------------------------------------|
E----------------------------------------------------------------------------|

E--------7--7H8-------------------------------------------------------------|
B--7-8-10-------10--8-------------------------------------------------------|
G-9-------------------9--7-----------------------------9---7----------------|
D--------------------------10--9-7-------------------7--9-7---10-9-7--9-7---|
A-----------------------------------10-9-7--9--5--7-----------------10---10-|
E---------------------------------------------------------------------------|

E-----------------------------------------5*--------------------------------|
B-----------------------7*---12*----------5*--------------------------------|
G--------------------7*---12*-------------5*--------------------------------|
D-------------------------------12*-------5*--------------------------------|
A-9H10P9-7-9--5---7-----------------7*--------------------------------------|
E---------------------------------------------------------------------------|

E--------------------------------------------------5--5-------------------|
B-5--5H7--7--7V--7H8P7--5--5--5V----5--5H7--7--7V-------8--7--5--5--5V----|
G---------------------------------7---------------------------------------|
D-------------------------------------------------------------------------|
A-------------------------------------------------------------------------|
E-------------------------------------------------------------------------|

E-------5--5H7--7--7--5-5-7---7H8P7P5-7--5-----------------------------------|
B--5-7-8-----------------------------------8-7-5-7-7-5-----------------------|
G-7-----------------------------------------------------9-7------------------|
D-----------------------------------------------------------10-9-10-9-7-9-10-|
A----------------------------------------------------------------------------|
E----------------------------------------------------------------------------|

E---------------------------------------------------------------------------|
B---------------------------------------------------------------------------|
G---------------------------------------------------------------------------|
D-9--7--9---9H10P9P7------------7---------------------7-9-9/10--9--7V-------|
A---------------------10-9-7-10----10/9-7-9-5/7---9-10----------------------|
E---------------------------------------------------------------------------|

E---------------------------------------------------------------------------|
B--------------------------------------------------------5--8-7-8--5-10-----|
G--------9-11/12--11--9--7/9V-----------------------------------------------|
D-9-10-12---------------------------7-9-9/10--9--7--5/7---------------------|
A-------------------------------9-10----------------------------------------|
E---------------------------------------------------------------------------|

E---------------------------------------------------------------------------|
B-10H12V--12-----------------7------7-8--------7-8-10--10--12--13-----------|
G-------------------------7-9----7-9--------7-9-----------------------------|
D-------------------7-9-10--------------9/10--------------------------------|
A-------------7-9-10--------------------------------------------------------|
E---------------------------------------------------------------------------|

E-------7-8-10--8-----------12-14/15--14--15---17---17/19-19TR--20TR-17TR---|
B-7-8-10------------12-13-15------------------------------------------------|
G---------------------------------------------------------------------------|
D
A
E

E-19TR--15TR--17TR--14TR--12TR--7TR--10TR--8TR--7TR--5TR--3/5V--------------|
B---------------------------------------------------------------------------|
G
D
A
E

E---------------------------------------------------------------------------|
B---------------------------------------------------------------------------|
G-9H11P9--------------------------------------------------------------------|
D--------10-9---------------------------------------------------------------|
A-------------12--10--7--5-7--5-7---7-5-7-5-7-5-7-5--7--5--7----------------|
E---------------------------------------------------------------------------|

E---------------------------------------------------------------------------|
B-7LT-----------------------7LT---------------------------------------------|
G----9LT------------------------9LT-----------------------------------------|
D--------10--9--7-------------------10--9--7--------------------------------|
A------------------10---7---------------------10---7--7--5--7--5--7---------|
E---------------------------------------------------------------------------|

E---------------------------------------------------------------------------|
B-----------------------------7LT-------------------------------------------|
G---------------------------------9LT---------------------------------------|
D-------------------------------------10--9--7------------------------------|
A-7-5-7-5-7-5---7--5--7--5-7--------------------10--7-----------------------|
E---------------------------------------------------------------------------|

E-----------------------------------5*-------------------------------------|
B-----------------------------------5*-------------------------------------|
G--------7--------------------------5*-------------------------------------|
D-----7-9-10-9-7--------------------5*-------------------------------------|
A-9-10-----------10-9--5/7V------------------------------------------------|
E--------------------------------------------------------------------------|

I Hope you enjoy AND SEND US THE SOLO PART  at islemus@live,fr

                                                       tabed by
                                                       (mr berimi) ALGERIA
Suggest correction
Give kudos to tab author, rate the tab!
1 2 3 4 5
comments
print report bad tab
1 comment total.
0 reply
ISLEMUS 10 wrote on June 22 2009, 06:38 pm

aaah the begining is bad, but i have to say that what come's next is too cool i love this song and i want to play it totlly so if you tab what next i would be very thankful.good job

guest
You may want to rate the tab now too:
select rating
Please do not post tabs as comments. Select "correction" instead!