Oops, an error
Loading. Please wait.

Asik Veysel Tab

version 1
version 1

Intro

Interactive

5,127 views 3 this week
1 commentread comment
1 2 3 4 5
1 last vote to show rating
add to favorites
launch autoscroll
font size
0
reset
how to read this tab
guitar tuner
Autoscroll
slow
fast
+/-
esc
set tempo
stop
Help us to improve Ultimate-Guitar.com Take our survey!
×
Author
Difficulty
intermediate
Hey, I'd like to do the whole song, but thats way beyond me. I love the intro, so i 
that up. I tried putting it in power tab, but i couldn't get the timing on there for a 
bit. Here it goes, please rate and email me with edits: sircoolguy99@gmail.com.

Tap the 12th frets, pull of and hammer on the rest.

Standard Tuning:

Section 1 (play twice)

12-0-7-9-10-12-0-5-0-12-0-10-0-12-0-9-0-12-0-7---------------------------------|
-------------------------------------------------------------------------------|
-------------------------------------------------------------------------------|
-------------------------------------------------------------------------------|
-------------------------------------------------------------------------------|
-------------------------------------------------------------------------------|


12-0-7-9-10-12-0-5-0-12-0-7-0-12-0-3-0-0-0-------------------------------------|
-------------------------------------------------------------------------------|
-------------------------------------------------------------------------------|
-------------------------------------------------------------------------------|
-------------------------------------------------------------------------------|
-------------------------------------------------------------------------------|

12-0-7-9-10-12-0-5-0-12-0-10-0-12-0-9-0-12-0-5---------------------------------|
-------------------------------------------------------------------------------|
-------------------------------------------------------------------------------|
-------------------------------------------------------------------------------|
-------------------------------------------------------------------------------|
-------------------------------------------------------------------------------|

12-0-7-9-10-12-0-5-0-12-0-7-0-12-0-3-0-0-0-------------------------------------|
-------------------------------------------------------------------------------|
-------------------------------------------------------------------------------|
-------------------------------------------------------------------------------|
-------------------------------------------------------------------------------|
-------------------------------------------------------------------------------|


Section 2:
-------------------------------------------------------------------------------|
12-0-7-9-10-12-0-5-0-12-0-10-0-12-0-9-0-12-0-7---------------------------------|
-------------------------------------------------------------------------------|
-------------------------------------------------------------------------------|
-------------------------------------------------------------------------------|
-------------------------------------------------------------------------------|

-------------------------------------------------------------------------------|
12-0-7-9-10-12-0-5-0-12-0-7-0-12-0-3-0-0-0-------------------------------------|
-------------------------------------------------------------------------------|
-------------------------------------------------------------------------------|
-------------------------------------------------------------------------------|
-------------------------------------------------------------------------------|

-------------------------------------------------------------------------------|
12-0-7-9-10-12-0-5-0-12-0-10-0-12-0-9-0-12-0-5---------------------------------|
-------------------------------------------------------------------------------|
-------------------------------------------------------------------------------|
-------------------------------------------------------------------------------|
-------------------------------------------------------------------------------|

-------------------------------------------------------------------------------|
12-0-7-9-10-12-0-5-0-12-0-7-0-12-0-3-0-0-0-------------------------------------|
-------------------------------------------------------------------------------|
-------------------------------------------------------------------------------|
-------------------------------------------------------------------------------|
-------------------------------------------------------------------------------|

Section 3:

-------------------------------------------------------------------------------|
-------------------------------------------------------------------------------|
12-0-7-9-10-12-0-5-0-12-0-10-0-12-0-9-0-12-0-7---------------------------------|
-------------------------------------------------------------------------------|
-------------------------------------------------------------------------------|
-------------------------------------------------------------------------------|

-------------------------------------------------------------------------------|
-------------------------------------------------------------------------------|
12-0-7-9-10-12-0-5-0-12-0-7-0-12-0-3-0-0-0-------------------------------------|
-------------------------------------------------------------------------------|
-------------------------------------------------------------------------------|
-------------------------------------------------------------------------------|

-------------------------------------------------------------------------------|
-------------------------------------------------------------------------------|
-------------------------------------------------------------------------------|
12-0-7-9-10-12-0-5-0-12-0-10-0-12-0-9-0-12-0-5---------------------------------|
-------------------------------------------------------------------------------|
-------------------------------------------------------------------------------|

-------------------------------------------------------------------------------|
-------------------------------------------------------------------------------|
-------------------------------------------------------------------------------|
12-0-7-9-10-12-0-5-0-12-0-7-0-12-0-3-0-0-0-------------------------------------|
-------------------------------------------------------------------------------|
-------------------------------------------------------------------------------|
Suggest correction
Give kudos to tab author, rate the tab!
1 2 3 4 5
comments
print report bad tab
1 comment total.
0 reply
simo9852 10 Aug 11, 2009 01:43 AM

on the fourth part of the intro (4th row in this tab)

e|-12-0-7-9-10-12-0-5-12-0-3-12-0-2-12-0-0-

guest
You may want to rate the tab now too:
select rating
Wanna post a correction for this tab? Suggest correction