Oops, an error
Loading. Please wait.

Bamboo Tab

version 1
version 1

Intro

Whole song

Interactive

1,386 views 9 this week
no commentswrite comment
1 2 3 4 5
please rate
add to favorites
launch autoscroll
font size
0
reset
how to read this tab
guitar tuner
Autoscroll
slow
fast
+/-
esc
set tempo
stop
Help us to improve Ultimate-Guitar.com Take our survey!
×
Author
                 Bamboo by Joe Satriani
                      (Intro)

Tabbed by marcus101.

This song uses standard tuning.

In this song Joe Satriani uses two hand tapping, if you're not sure how to do this 
check it out on youtube.


E-----------17p0---------17p0--19p0-----|                 Let the open
B-----------------17p10-----------------|                 A string ring. 
G------------17p9---------17p9--19p9----|   x4            
D------------------17p7-----------------|                 
A---0-----------------------------------|
E---------------------------------------|


E-----------12p0--------12p0--14p0------|                 Let the open E
B-----------------12p5------------------|                 string ring.
G------------12p4--------12p4--14p4-----|   x4            
D------------------12p2-----------------|
A---------------------------------------|
E---0-----------------------------------|


E-----------17p0---------17p0--19p0-----|
B-----------------17p10-----------------|
G------------17p9---------17p9--19p9----|   x4
D------------------17p7-----------------|
A---0-----------------------------------|
E---------------------------------------|


E-----------12p0--------12p0--14p0------|               Let the 3rd
B-----------------12p7------------------|               fret of the
G------------12p5-------12p5--14p5------|   x3          A string ring.
D------------------12p5-----------------|
A---3-----------------------------------|
E---------------------------------------|


E-----------17p0---------17p0--19p0-----|
B-----------------17p10-----------------|
G------------17p9---------17p9--19p9----|   x4
D------------------17p7-----------------|
A---0-----------------------------------|
E---------------------------------------|


E-----------12p0--------12p0--14p0------|
B-----------------12p5------------------|
G------------12p4--------12p4--14p4-----|   x4
D------------------12p2-----------------|
A---------------------------------------|
E---0-----------------------------------|


On the 4th time you play each section (3rd time on section 3), only play the first 
2 finger taps but twice.  

For example,
on the first section just play these 2 finger taps but twice on the 4th time you 
play the section, you'll hear what I mean when you listen to the song.

E-----------17p0---------17p0------------|
B-----------------17p10--------17p10-----|
G------------17p9---------17p9-----------|
D------------------17p7---------17p7-----|
A---0------------------------------------|
E----------------------------------------|


This is an awesome song, enjoy playing!!
Suggest correction
Give kudos to tab author, rate the tab!
1 2 3 4 5
comments
print report bad tab
guest
You may want to rate the tab now too:
select rating
Please do not post tabs as comments. Select "correction" instead!